ISO-10303-21;
HEADER;
/* Generated by software containing ST-Developer
 * from STEP Tools, Inc. (www.steptools.com) 
 */
/* OPTION: using custom schema-name function */

FILE_DESCRIPTION(
/* description */ (''),
/* implementation_level */ '2;1');

FILE_NAME(
/* name */ '119100',
/* time_stamp */ '2014-10-06T10:49:23+02:00',
/* author */ (''),
/* organization */ (''),
/* preprocessor_version */ 'ST-DEVELOPER v14',
/* originating_system */ 'HiCAD 2013 1802.4 Build 509',
/* authorisation */ '');

FILE_SCHEMA (('AUTOMOTIVE_DESIGN { 1 0 10303 214 1 1 1 1 }'));
ENDSEC;

DATA;
#10=ITEM_DEFINED_TRANSFORMATION('','',#538,#539);
#11=(
REPRESENTATION_RELATIONSHIP('','',#264,#559)
REPRESENTATION_RELATIONSHIP_WITH_TRANSFORMATION(#10)
SHAPE_REPRESENTATION_RELATIONSHIP()
);
#12=CONTEXT_DEPENDENT_SHAPE_REPRESENTATION(#11,#562);
#13=NEXT_ASSEMBLY_USAGE_OCCURRENCE('119100HandgreepprofielBOIKON0',
'119100HandgreepprofielBOIKON0','',#564,#565,$);
#14=DRAUGHTING_PRE_DEFINED_CURVE_FONT('continuous');
#15=DRAUGHTING_PRE_DEFINED_CURVE_FONT('continuous');
#16=DRAUGHTING_PRE_DEFINED_CURVE_FONT('continuous');
#17=DRAUGHTING_PRE_DEFINED_CURVE_FONT('continuous');
#18=DRAUGHTING_PRE_DEFINED_CURVE_FONT('continuous');
#19=DRAUGHTING_PRE_DEFINED_CURVE_FONT('continuous');
#20=DRAUGHTING_PRE_DEFINED_CURVE_FONT('continuous');
#21=DRAUGHTING_PRE_DEFINED_CURVE_FONT('continuous');
#22=DRAUGHTING_PRE_DEFINED_CURVE_FONT('continuous');
#23=DRAUGHTING_PRE_DEFINED_CURVE_FONT('continuous');
#24=DRAUGHTING_PRE_DEFINED_CURVE_FONT('continuous');
#25=DRAUGHTING_PRE_DEFINED_CURVE_FONT('continuous');
#26=DRAUGHTING_PRE_DEFINED_CURVE_FONT('continuous');
#27=DRAUGHTING_PRE_DEFINED_CURVE_FONT('continuous');
#28=DRAUGHTING_PRE_DEFINED_CURVE_FONT('continuous');
#29=DRAUGHTING_PRE_DEFINED_CURVE_FONT('continuous');
#30=DRAUGHTING_PRE_DEFINED_CURVE_FONT('continuous');
#31=DRAUGHTING_PRE_DEFINED_CURVE_FONT('continuous');
#32=DRAUGHTING_PRE_DEFINED_CURVE_FONT('continuous');
#33=DRAUGHTING_PRE_DEFINED_CURVE_FONT('continuous');
#34=DRAUGHTING_PRE_DEFINED_CURVE_FONT('continuous');
#35=DRAUGHTING_PRE_DEFINED_CURVE_FONT('continuous');
#36=DRAUGHTING_PRE_DEFINED_CURVE_FONT('continuous');
#37=DRAUGHTING_PRE_DEFINED_CURVE_FONT('continuous');
#38=DRAUGHTING_PRE_DEFINED_CURVE_FONT('continuous');
#39=DRAUGHTING_PRE_DEFINED_CURVE_FONT('continuous');
#40=DRAUGHTING_PRE_DEFINED_CURVE_FONT('continuous');
#41=DRAUGHTING_PRE_DEFINED_CURVE_FONT('continuous');
#42=DRAUGHTING_PRE_DEFINED_CURVE_FONT('continuous');
#43=DRAUGHTING_PRE_DEFINED_CURVE_FONT('continuous');
#44=DRAUGHTING_PRE_DEFINED_CURVE_FONT('continuous');
#45=DRAUGHTING_PRE_DEFINED_CURVE_FONT('continuous');
#46=DRAUGHTING_PRE_DEFINED_CURVE_FONT('continuous');
#47=DRAUGHTING_PRE_DEFINED_CURVE_FONT('continuous');
#48=DRAUGHTING_PRE_DEFINED_CURVE_FONT('continuous');
#49=DRAUGHTING_PRE_DEFINED_CURVE_FONT('continuous');
#50=DRAUGHTING_PRE_DEFINED_CURVE_FONT('continuous');
#51=DRAUGHTING_PRE_DEFINED_CURVE_FONT('continuous');
#52=DRAUGHTING_PRE_DEFINED_CURVE_FONT('continuous');
#53=DRAUGHTING_PRE_DEFINED_CURVE_FONT('continuous');
#54=DRAUGHTING_PRE_DEFINED_CURVE_FONT('continuous');
#55=DRAUGHTING_PRE_DEFINED_CURVE_FONT('continuous');
#56=DRAUGHTING_PRE_DEFINED_CURVE_FONT('continuous');
#57=DRAUGHTING_PRE_DEFINED_CURVE_FONT('continuous');
#58=DRAUGHTING_PRE_DEFINED_CURVE_FONT('continuous');
#59=DRAUGHTING_PRE_DEFINED_CURVE_FONT('continuous');
#60=DRAUGHTING_PRE_DEFINED_CURVE_FONT('continuous');
#61=DRAUGHTING_PRE_DEFINED_CURVE_FONT('continuous');
#62=CURVE_STYLE(' ',#14,POSITIVE_LENGTH_MEASURE(0.352777777777778),#213);
#63=CURVE_STYLE(' ',#15,POSITIVE_LENGTH_MEASURE(0.352777777777778),#214);
#64=CURVE_STYLE(' ',#16,POSITIVE_LENGTH_MEASURE(0.352777777777778),#215);
#65=CURVE_STYLE(' ',#17,POSITIVE_LENGTH_MEASURE(0.352777777777778),#216);
#66=CURVE_STYLE(' ',#18,POSITIVE_LENGTH_MEASURE(0.352777777777778),#217);
#67=CURVE_STYLE(' ',#19,POSITIVE_LENGTH_MEASURE(0.352777777777778),#218);
#68=CURVE_STYLE(' ',#20,POSITIVE_LENGTH_MEASURE(0.352777777777778),#219);
#69=CURVE_STYLE(' ',#21,POSITIVE_LENGTH_MEASURE(0.352777777777778),#220);
#70=CURVE_STYLE(' ',#22,POSITIVE_LENGTH_MEASURE(0.352777777777778),#221);
#71=CURVE_STYLE(' ',#23,POSITIVE_LENGTH_MEASURE(0.352777777777778),#222);
#72=CURVE_STYLE(' ',#24,POSITIVE_LENGTH_MEASURE(0.352777777777778),#223);
#73=CURVE_STYLE(' ',#25,POSITIVE_LENGTH_MEASURE(0.352777777777778),#224);
#74=CURVE_STYLE(' ',#26,POSITIVE_LENGTH_MEASURE(0.352777777777778),#225);
#75=CURVE_STYLE(' ',#27,POSITIVE_LENGTH_MEASURE(0.352777777777778),#226);
#76=CURVE_STYLE(' ',#28,POSITIVE_LENGTH_MEASURE(0.352777777777778),#227);
#77=CURVE_STYLE(' ',#29,POSITIVE_LENGTH_MEASURE(0.352777777777778),#228);
#78=CURVE_STYLE(' ',#30,POSITIVE_LENGTH_MEASURE(0.352777777777778),#229);
#79=CURVE_STYLE(' ',#31,POSITIVE_LENGTH_MEASURE(0.352777777777778),#230);
#80=CURVE_STYLE(' ',#32,POSITIVE_LENGTH_MEASURE(0.352777777777778),#231);
#81=CURVE_STYLE(' ',#33,POSITIVE_LENGTH_MEASURE(0.352777777777778),#232);
#82=CURVE_STYLE(' ',#34,POSITIVE_LENGTH_MEASURE(0.352777777777778),#233);
#83=CURVE_STYLE(' ',#35,POSITIVE_LENGTH_MEASURE(0.352777777777778),#234);
#84=CURVE_STYLE(' ',#36,POSITIVE_LENGTH_MEASURE(0.352777777777778),#235);
#85=CURVE_STYLE(' ',#37,POSITIVE_LENGTH_MEASURE(0.352777777777778),#236);
#86=CURVE_STYLE(' ',#38,POSITIVE_LENGTH_MEASURE(0.352777777777778),#237);
#87=CURVE_STYLE(' ',#39,POSITIVE_LENGTH_MEASURE(0.352777777777778),#238);
#88=CURVE_STYLE(' ',#40,POSITIVE_LENGTH_MEASURE(0.352777777777778),#239);
#89=CURVE_STYLE(' ',#41,POSITIVE_LENGTH_MEASURE(0.352777777777778),#240);
#90=CURVE_STYLE(' ',#42,POSITIVE_LENGTH_MEASURE(0.352777777777778),#241);
#91=CURVE_STYLE(' ',#43,POSITIVE_LENGTH_MEASURE(0.352777777777778),#242);
#92=CURVE_STYLE(' ',#44,POSITIVE_LENGTH_MEASURE(0.352777777777778),#243);
#93=CURVE_STYLE(' ',#45,POSITIVE_LENGTH_MEASURE(0.352777777777778),#244);
#94=CURVE_STYLE(' ',#46,POSITIVE_LENGTH_MEASURE(0.352777777777778),#245);
#95=CURVE_STYLE(' ',#47,POSITIVE_LENGTH_MEASURE(0.352777777777778),#246);
#96=CURVE_STYLE(' ',#48,POSITIVE_LENGTH_MEASURE(0.352777777777778),#247);
#97=CURVE_STYLE(' ',#49,POSITIVE_LENGTH_MEASURE(0.352777777777778),#248);
#98=CURVE_STYLE(' ',#50,POSITIVE_LENGTH_MEASURE(0.352777777777778),#249);
#99=CURVE_STYLE(' ',#51,POSITIVE_LENGTH_MEASURE(0.352777777777778),#250);
#100=CURVE_STYLE(' ',#52,POSITIVE_LENGTH_MEASURE(0.352777777777778),#251);
#101=CURVE_STYLE(' ',#53,POSITIVE_LENGTH_MEASURE(0.352777777777778),#252);
#102=CURVE_STYLE(' ',#54,POSITIVE_LENGTH_MEASURE(0.352777777777778),#253);
#103=CURVE_STYLE(' ',#55,POSITIVE_LENGTH_MEASURE(0.352777777777778),#254);
#104=CURVE_STYLE(' ',#56,POSITIVE_LENGTH_MEASURE(0.352777777777778),#255);
#105=CURVE_STYLE(' ',#57,POSITIVE_LENGTH_MEASURE(0.352777777777778),#256);
#106=CURVE_STYLE(' ',#58,POSITIVE_LENGTH_MEASURE(0.352777777777778),#257);
#107=CURVE_STYLE(' ',#59,POSITIVE_LENGTH_MEASURE(0.352777777777778),#258);
#108=CURVE_STYLE(' ',#60,POSITIVE_LENGTH_MEASURE(0.352777777777778),#259);
#109=CURVE_STYLE(' ',#61,POSITIVE_LENGTH_MEASURE(0.352777777777778),#260);
#110=OVER_RIDING_STYLED_ITEM('Edge Colour',(#159),#376,#261);
#111=OVER_RIDING_STYLED_ITEM('Edge Colour',(#160),#377,#261);
#112=OVER_RIDING_STYLED_ITEM('Edge Colour',(#161),#378,#261);
#113=OVER_RIDING_STYLED_ITEM('Edge Colour',(#162),#379,#261);
#114=OVER_RIDING_STYLED_ITEM('Edge Colour',(#163),#380,#261);
#115=OVER_RIDING_STYLED_ITEM('Edge Colour',(#164),#376,#261);
#116=OVER_RIDING_STYLED_ITEM('Edge Colour',(#165),#381,#261);
#117=OVER_RIDING_STYLED_ITEM('Edge Colour',(#166),#382,#261);
#118=OVER_RIDING_STYLED_ITEM('Edge Colour',(#167),#383,#261);
#119=OVER_RIDING_STYLED_ITEM('Edge Colour',(#168),#384,#261);
#120=OVER_RIDING_STYLED_ITEM('Edge Colour',(#169),#385,#261);
#121=OVER_RIDING_STYLED_ITEM('Edge Colour',(#170),#386,#261);
#122=OVER_RIDING_STYLED_ITEM('Edge Colour',(#171),#387,#261);
#123=OVER_RIDING_STYLED_ITEM('Edge Colour',(#172),#388,#261);
#124=OVER_RIDING_STYLED_ITEM('Edge Colour',(#173),#380,#261);
#125=OVER_RIDING_STYLED_ITEM('Edge Colour',(#174),#379,#261);
#126=OVER_RIDING_STYLED_ITEM('Edge Colour',(#175),#378,#261);
#127=OVER_RIDING_STYLED_ITEM('Edge Colour',(#176),#389,#261);
#128=OVER_RIDING_STYLED_ITEM('Edge Colour',(#177),#390,#261);
#129=OVER_RIDING_STYLED_ITEM('Edge Colour',(#178),#383,#261);
#130=OVER_RIDING_STYLED_ITEM('Edge Colour',(#179),#389,#261);
#131=OVER_RIDING_STYLED_ITEM('Edge Colour',(#180),#377,#261);
#132=OVER_RIDING_STYLED_ITEM('Edge Colour',(#181),#381,#261);
#133=OVER_RIDING_STYLED_ITEM('Edge Colour',(#182),#391,#261);
#134=OVER_RIDING_STYLED_ITEM('Edge Colour',(#183),#392,#261);
#135=OVER_RIDING_STYLED_ITEM('Edge Colour',(#184),#393,#261);
#136=OVER_RIDING_STYLED_ITEM('Edge Colour',(#185),#394,#261);
#137=OVER_RIDING_STYLED_ITEM('Edge Colour',(#186),#395,#261);
#138=OVER_RIDING_STYLED_ITEM('Edge Colour',(#187),#396,#261);
#139=OVER_RIDING_STYLED_ITEM('Edge Colour',(#188),#391,#261);
#140=OVER_RIDING_STYLED_ITEM('Edge Colour',(#189),#382,#261);
#141=OVER_RIDING_STYLED_ITEM('Edge Colour',(#190),#388,#261);
#142=OVER_RIDING_STYLED_ITEM('Edge Colour',(#191),#397,#261);
#143=OVER_RIDING_STYLED_ITEM('Edge Colour',(#192),#392,#261);
#144=OVER_RIDING_STYLED_ITEM('Edge Colour',(#193),#396,#261);
#145=OVER_RIDING_STYLED_ITEM('Edge Colour',(#194),#387,#261);
#146=OVER_RIDING_STYLED_ITEM('Edge Colour',(#195),#398,#261);
#147=OVER_RIDING_STYLED_ITEM('Edge Colour',(#196),#393,#261);
#148=OVER_RIDING_STYLED_ITEM('Edge Colour',(#197),#397,#261);
#149=OVER_RIDING_STYLED_ITEM('Edge Colour',(#198),#386,#261);
#150=OVER_RIDING_STYLED_ITEM('Edge Colour',(#199),#399,#261);
#151=OVER_RIDING_STYLED_ITEM('Edge Colour',(#200),#394,#261);
#152=OVER_RIDING_STYLED_ITEM('Edge Colour',(#201),#398,#261);
#153=OVER_RIDING_STYLED_ITEM('Edge Colour',(#202),#385,#261);
#154=OVER_RIDING_STYLED_ITEM('Edge Colour',(#203),#390,#261);
#155=OVER_RIDING_STYLED_ITEM('Edge Colour',(#204),#395,#261);
#156=OVER_RIDING_STYLED_ITEM('Edge Colour',(#205),#399,#261);
#157=OVER_RIDING_STYLED_ITEM('Edge Colour',(#206),#384,#261);
#158=PRESENTATION_STYLE_ASSIGNMENT((#207));
#159=PRESENTATION_STYLE_ASSIGNMENT((#62));
#160=PRESENTATION_STYLE_ASSIGNMENT((#63));
#161=PRESENTATION_STYLE_ASSIGNMENT((#64));
#162=PRESENTATION_STYLE_ASSIGNMENT((#65));
#163=PRESENTATION_STYLE_ASSIGNMENT((#66));
#164=PRESENTATION_STYLE_ASSIGNMENT((#67));
#165=PRESENTATION_STYLE_ASSIGNMENT((#68));
#166=PRESENTATION_STYLE_ASSIGNMENT((#69));
#167=PRESENTATION_STYLE_ASSIGNMENT((#70));
#168=PRESENTATION_STYLE_ASSIGNMENT((#71));
#169=PRESENTATION_STYLE_ASSIGNMENT((#72));
#170=PRESENTATION_STYLE_ASSIGNMENT((#73));
#171=PRESENTATION_STYLE_ASSIGNMENT((#74));
#172=PRESENTATION_STYLE_ASSIGNMENT((#75));
#173=PRESENTATION_STYLE_ASSIGNMENT((#76));
#174=PRESENTATION_STYLE_ASSIGNMENT((#77));
#175=PRESENTATION_STYLE_ASSIGNMENT((#78));
#176=PRESENTATION_STYLE_ASSIGNMENT((#79));
#177=PRESENTATION_STYLE_ASSIGNMENT((#80));
#178=PRESENTATION_STYLE_ASSIGNMENT((#81));
#179=PRESENTATION_STYLE_ASSIGNMENT((#82));
#180=PRESENTATION_STYLE_ASSIGNMENT((#83));
#181=PRESENTATION_STYLE_ASSIGNMENT((#84));
#182=PRESENTATION_STYLE_ASSIGNMENT((#85));
#183=PRESENTATION_STYLE_ASSIGNMENT((#86));
#184=PRESENTATION_STYLE_ASSIGNMENT((#87));
#185=PRESENTATION_STYLE_ASSIGNMENT((#88));
#186=PRESENTATION_STYLE_ASSIGNMENT((#89));
#187=PRESENTATION_STYLE_ASSIGNMENT((#90));
#188=PRESENTATION_STYLE_ASSIGNMENT((#91));
#189=PRESENTATION_STYLE_ASSIGNMENT((#92));
#190=PRESENTATION_STYLE_ASSIGNMENT((#93));
#191=PRESENTATION_STYLE_ASSIGNMENT((#94));
#192=PRESENTATION_STYLE_ASSIGNMENT((#95));
#193=PRESENTATION_STYLE_ASSIGNMENT((#96));
#194=PRESENTATION_STYLE_ASSIGNMENT((#97));
#195=PRESENTATION_STYLE_ASSIGNMENT((#98));
#196=PRESENTATION_STYLE_ASSIGNMENT((#99));
#197=PRESENTATION_STYLE_ASSIGNMENT((#100));
#198=PRESENTATION_STYLE_ASSIGNMENT((#101));
#199=PRESENTATION_STYLE_ASSIGNMENT((#102));
#200=PRESENTATION_STYLE_ASSIGNMENT((#103));
#201=PRESENTATION_STYLE_ASSIGNMENT((#104));
#202=PRESENTATION_STYLE_ASSIGNMENT((#105));
#203=PRESENTATION_STYLE_ASSIGNMENT((#106));
#204=PRESENTATION_STYLE_ASSIGNMENT((#107));
#205=PRESENTATION_STYLE_ASSIGNMENT((#108));
#206=PRESENTATION_STYLE_ASSIGNMENT((#109));
#207=SURFACE_STYLE_USAGE(.BOTH.,#208);
#208=SURFACE_SIDE_STYLE('',(#209));
#209=SURFACE_STYLE_FILL_AREA(#210);
#210=FILL_AREA_STYLE('',(#211));
#211=FILL_AREA_STYLE_COLOUR('',#212);
#212=COLOUR_RGB('',0.921568989753723,0.921568989753723,0.921568989753723);
#213=COLOUR_RGB('',0.,0.,0.);
#214=COLOUR_RGB('',0.,0.,0.);
#215=COLOUR_RGB('',0.,0.,0.);
#216=COLOUR_RGB('',0.,0.,0.);
#217=COLOUR_RGB('',0.,0.,0.);
#218=COLOUR_RGB('',0.,0.,0.);
#219=COLOUR_RGB('',0.,0.,0.);
#220=COLOUR_RGB('',0.,0.,0.);
#221=COLOUR_RGB('',0.,0.,0.);
#222=COLOUR_RGB('',0.,0.,0.);
#223=COLOUR_RGB('',0.,0.,0.);
#224=COLOUR_RGB('',0.,0.,0.);
#225=COLOUR_RGB('',0.,0.,0.);
#226=COLOUR_RGB('',0.,0.,0.);
#227=COLOUR_RGB('',0.,0.,0.);
#228=COLOUR_RGB('',0.,0.,0.);
#229=COLOUR_RGB('',0.,0.,0.);
#230=COLOUR_RGB('',0.,0.,0.);
#231=COLOUR_RGB('',0.,0.,0.);
#232=COLOUR_RGB('',0.,0.,0.);
#233=COLOUR_RGB('',0.,0.,0.);
#234=COLOUR_RGB('',0.,0.,0.);
#235=COLOUR_RGB('',0.,0.,0.);
#236=COLOUR_RGB('',0.,0.,0.);
#237=COLOUR_RGB('',0.,0.,0.);
#238=COLOUR_RGB('',0.,0.,0.);
#239=COLOUR_RGB('',0.,0.,0.);
#240=COLOUR_RGB('',0.,0.,0.);
#241=COLOUR_RGB('',0.,0.,0.);
#242=COLOUR_RGB('',0.,0.,0.);
#243=COLOUR_RGB('',0.,0.,0.);
#244=COLOUR_RGB('',0.,0.,0.);
#245=COLOUR_RGB('',0.,0.,0.);
#246=COLOUR_RGB('',0.,0.,0.);
#247=COLOUR_RGB('',0.,0.,0.);
#248=COLOUR_RGB('',0.,0.,0.);
#249=COLOUR_RGB('',0.,0.,0.);
#250=COLOUR_RGB('',0.,0.,0.);
#251=COLOUR_RGB('',0.,0.,0.);
#252=COLOUR_RGB('',0.,0.,0.);
#253=COLOUR_RGB('',0.,0.,0.);
#254=COLOUR_RGB('',0.,0.,0.);
#255=COLOUR_RGB('',0.,0.,0.);
#256=COLOUR_RGB('',0.,0.,0.);
#257=COLOUR_RGB('',0.,0.,0.);
#258=COLOUR_RGB('',0.,0.,0.);
#259=COLOUR_RGB('',0.,0.,0.);
#260=COLOUR_RGB('',0.,0.,0.);
#261=STYLED_ITEM('Solid Colour',(#158),#558);
#262=MECHANICAL_DESIGN_GEOMETRIC_PRESENTATION_REPRESENTATION(
'Container for Styled_item',(#261,#155,#156,#157,#127,#128,#129,#130,#131,
#132,#133,#134,#135,#136,#137,#138,#139,#140,#141,#142,#143,#144,#145,#146,
#147,#148,#149,#150,#151,#152,#153,#154,#110,#111,#112,#113,#114,#115,#116,
#117,#118,#119,#120,#121,#122,#123,#124,#125,#126),#577);
#263=PRESENTATION_LAYER_ASSIGNMENT('APPLE','1',(#558));
#264=ADVANCED_BREP_SHAPE_REPRESENTATION('Body',(#558,#538),#578);
#265=CLOSED_SHELL('',(#548,#549,#550,#551,#552,#553,#554,#555,#556,#557));
#266=CIRCLE('',#526,13.);
#267=CIRCLE('',#527,12.9999999999999);
#268=CIRCLE('',#529,15.);
#269=CIRCLE('',#531,15.);
#270=CYLINDRICAL_SURFACE('',#525,13.);
#271=CYLINDRICAL_SURFACE('',#530,15.);
#272=ORIENTED_EDGE('',*,*,#376,.T.);
#273=ORIENTED_EDGE('',*,*,#377,.F.);
#274=ORIENTED_EDGE('',*,*,#378,.F.);
#275=ORIENTED_EDGE('',*,*,#379,.T.);
#276=ORIENTED_EDGE('',*,*,#380,.F.);
#277=ORIENTED_EDGE('',*,*,#376,.T.);
#278=ORIENTED_EDGE('',*,*,#381,.T.);
#279=ORIENTED_EDGE('',*,*,#382,.F.);
#280=ORIENTED_EDGE('',*,*,#383,.F.);
#281=ORIENTED_EDGE('',*,*,#384,.F.);
#282=ORIENTED_EDGE('',*,*,#385,.F.);
#283=ORIENTED_EDGE('',*,*,#386,.F.);
#284=ORIENTED_EDGE('',*,*,#387,.F.);
#285=ORIENTED_EDGE('',*,*,#388,.F.);
#286=ORIENTED_EDGE('',*,*,#380,.F.);
#287=ORIENTED_EDGE('',*,*,#379,.F.);
#288=ORIENTED_EDGE('',*,*,#378,.T.);
#289=ORIENTED_EDGE('',*,*,#389,.F.);
#290=ORIENTED_EDGE('',*,*,#390,.F.);
#291=ORIENTED_EDGE('',*,*,#383,.T.);
#292=ORIENTED_EDGE('',*,*,#389,.T.);
#293=ORIENTED_EDGE('',*,*,#377,.T.);
#294=ORIENTED_EDGE('',*,*,#381,.T.);
#295=ORIENTED_EDGE('',*,*,#391,.T.);
#296=ORIENTED_EDGE('',*,*,#392,.T.);
#297=ORIENTED_EDGE('',*,*,#393,.T.);
#298=ORIENTED_EDGE('',*,*,#394,.T.);
#299=ORIENTED_EDGE('',*,*,#395,.T.);
#300=ORIENTED_EDGE('',*,*,#396,.T.);
#301=ORIENTED_EDGE('',*,*,#391,.F.);
#302=ORIENTED_EDGE('',*,*,#382,.F.);
#303=ORIENTED_EDGE('',*,*,#388,.T.);
#304=ORIENTED_EDGE('',*,*,#397,.T.);
#305=ORIENTED_EDGE('',*,*,#392,.F.);
#306=ORIENTED_EDGE('',*,*,#396,.F.);
#307=ORIENTED_EDGE('',*,*,#387,.T.);
#308=ORIENTED_EDGE('',*,*,#398,.T.);
#309=ORIENTED_EDGE('',*,*,#393,.F.);
#310=ORIENTED_EDGE('',*,*,#397,.F.);
#311=ORIENTED_EDGE('',*,*,#386,.T.);
#312=ORIENTED_EDGE('',*,*,#399,.T.);
#313=ORIENTED_EDGE('',*,*,#394,.F.);
#314=ORIENTED_EDGE('',*,*,#398,.F.);
#315=ORIENTED_EDGE('',*,*,#385,.T.);
#316=ORIENTED_EDGE('',*,*,#390,.T.);
#317=ORIENTED_EDGE('',*,*,#395,.F.);
#318=ORIENTED_EDGE('',*,*,#399,.F.);
#319=ORIENTED_EDGE('',*,*,#384,.T.);
#320=VECTOR('',#422,1.);
#321=VECTOR('',#423,1.);
#322=VECTOR('',#424,1.);
#323=VECTOR('',#425,1.);
#324=VECTOR('',#432,1.);
#325=VECTOR('',#437,1.);
#326=VECTOR('',#438,1.);
#327=VECTOR('',#439,1.);
#328=VECTOR('',#440,1.);
#329=VECTOR('',#441,1.);
#330=VECTOR('',#446,1.);
#331=VECTOR('',#449,1.);
#332=VECTOR('',#450,1.);
#333=VECTOR('',#451,1.);
#334=VECTOR('',#452,1.);
#335=VECTOR('',#453,1.);
#336=VECTOR('',#456,1.);
#337=VECTOR('',#459,1.);
#338=VECTOR('',#462,1.);
#339=VECTOR('',#465,1.);
#340=LINE('',#475,#320);
#341=LINE('',#477,#321);
#342=LINE('',#479,#322);
#343=LINE('',#480,#323);
#344=LINE('',#486,#324);
#345=LINE('',#491,#325);
#346=LINE('',#493,#326);
#347=LINE('',#495,#327);
#348=LINE('',#497,#328);
#349=LINE('',#498,#329);
#350=LINE('',#502,#330);
#351=LINE('',#505,#331);
#352=LINE('',#507,#332);
#353=LINE('',#509,#333);
#354=LINE('',#511,#334);
#355=LINE('',#512,#335);
#356=LINE('',#514,#336);
#357=LINE('',#516,#337);
#358=LINE('',#518,#338);
#359=LINE('',#520,#339);
#360=VERTEX_POINT('',#473);
#361=VERTEX_POINT('',#474);
#362=VERTEX_POINT('',#476);
#363=VERTEX_POINT('',#478);
#364=VERTEX_POINT('',#482);
#365=VERTEX_POINT('',#484);
#366=VERTEX_POINT('',#488);
#367=VERTEX_POINT('',#490);
#368=VERTEX_POINT('',#492);
#369=VERTEX_POINT('',#494);
#370=VERTEX_POINT('',#496);
#371=VERTEX_POINT('',#500);
#372=VERTEX_POINT('',#504);
#373=VERTEX_POINT('',#506);
#374=VERTEX_POINT('',#508);
#375=VERTEX_POINT('',#510);
#376=EDGE_CURVE('',#360,#361,#340,.T.);
#377=EDGE_CURVE('',#362,#361,#341,.T.);
#378=EDGE_CURVE('',#363,#362,#342,.T.);
#379=EDGE_CURVE('',#363,#360,#343,.T.);
#380=EDGE_CURVE('',#360,#364,#266,.T.);
#381=EDGE_CURVE('',#361,#365,#267,.T.);
#382=EDGE_CURVE('',#364,#365,#344,.T.);
#383=EDGE_CURVE('',#366,#363,#268,.T.);
#384=EDGE_CURVE('',#367,#366,#345,.T.);
#385=EDGE_CURVE('',#368,#367,#346,.T.);
#386=EDGE_CURVE('',#369,#368,#347,.T.);
#387=EDGE_CURVE('',#370,#369,#348,.T.);
#388=EDGE_CURVE('',#364,#370,#349,.T.);
#389=EDGE_CURVE('',#371,#362,#269,.T.);
#390=EDGE_CURVE('',#366,#371,#350,.T.);
#391=EDGE_CURVE('',#365,#372,#351,.T.);
#392=EDGE_CURVE('',#372,#373,#352,.T.);
#393=EDGE_CURVE('',#373,#374,#353,.T.);
#394=EDGE_CURVE('',#374,#375,#354,.T.);
#395=EDGE_CURVE('',#375,#371,#355,.T.);
#396=EDGE_CURVE('',#370,#372,#356,.T.);
#397=EDGE_CURVE('',#369,#373,#357,.T.);
#398=EDGE_CURVE('',#368,#374,#358,.T.);
#399=EDGE_CURVE('',#367,#375,#359,.T.);
#400=EDGE_LOOP('',(#272,#273,#274,#275));
#401=EDGE_LOOP('',(#276,#277,#278,#279));
#402=EDGE_LOOP('',(#280,#281,#282,#283,#284,#285,#286,#287));
#403=EDGE_LOOP('',(#288,#289,#290,#291));
#404=EDGE_LOOP('',(#292,#293,#294,#295,#296,#297,#298,#299));
#405=EDGE_LOOP('',(#300,#301,#302,#303));
#406=EDGE_LOOP('',(#304,#305,#306,#307));
#407=EDGE_LOOP('',(#308,#309,#310,#311));
#408=EDGE_LOOP('',(#312,#313,#314,#315));
#409=EDGE_LOOP('',(#316,#317,#318,#319));
#410=FACE_BOUND('',#400,.T.);
#411=FACE_BOUND('',#401,.F.);
#412=FACE_BOUND('',#402,.T.);
#413=FACE_BOUND('',#403,.T.);
#414=FACE_BOUND('',#404,.T.);
#415=FACE_BOUND('',#405,.T.);
#416=FACE_BOUND('',#406,.T.);
#417=FACE_BOUND('',#407,.T.);
#418=FACE_BOUND('',#408,.T.);
#419=FACE_BOUND('',#409,.T.);
#420=DIRECTION('',(-2.77555756156289E-017,-0.266666694103495,-0.963788812062017));
#421=DIRECTION('',(0.,0.963788812062017,-0.266666694103495));
#422=DIRECTION('',(-999.999999999999,0.,4.54747350886464E-013));
#423=DIRECTION('',(0.,-1.92757762412384,0.533333388207211));
#424=DIRECTION('',(-999.999999999999,0.,0.));
#425=DIRECTION('',(0.,-1.92757762412384,0.533333388206756));
#426=DIRECTION('',(-1.,0.,0.));
#427=DIRECTION('',(0.,0.963788820821297,-0.266666662445634));
#428=DIRECTION('',(1.,-8.42965839404727E-015,2.3277406856307E-015));
#429=DIRECTION('',(1.13686837721616E-013,12.5292546706769,-3.46666661179324));
#430=DIRECTION('',(1.,-1.18891169201644E-018,-4.29697430942623E-018));
#431=DIRECTION('',(0.,12.5292546706769,-3.46666661179279));
#432=DIRECTION('',(-999.999999999999,0.,0.));
#433=DIRECTION('',(1.,0.,-4.62592926927148E-018));
#434=DIRECTION('',(0.,-1.,0.));
#435=DIRECTION('',(-1.,4.80082751632899E-022,7.57912251477437E-015));
#436=DIRECTION('',(1.13686837721616E-013,9.50722096604295E-007,15.));
#437=DIRECTION('',(1.13686837721616E-013,10.0000009507221,0.));
#438=DIRECTION('',(0.,0.,19.));
#439=DIRECTION('',(0.,-2.,0.));
#440=DIRECTION('',(0.,0.,-17.));
#441=DIRECTION('',(0.,-8.,0.));
#442=DIRECTION('',(-1.,0.,0.));
#443=DIRECTION('',(0.,6.33814731069529E-008,0.999999999999998));
#444=DIRECTION('',(-1.,-2.93198211574996E-025,1.85833345619473E-032));
#445=DIRECTION('',(0.,9.50722096604295E-007,15.));
#446=DIRECTION('',(-999.999999999999,0.,0.));
#447=DIRECTION('',(-1.,0.,4.62592926927148E-018));
#448=DIRECTION('',(0.,1.,0.));
#449=DIRECTION('',(0.,-8.,0.));
#450=DIRECTION('',(0.,0.,-17.));
#451=DIRECTION('',(0.,-2.,0.));
#452=DIRECTION('',(0.,0.,19.));
#453=DIRECTION('',(0.,10.0000009507221,0.));
#454=DIRECTION('',(6.41654724417896E-017,3.27745875749472E-018,-1.));
#455=DIRECTION('',(0.,1.,3.27745875749472E-018));
#456=DIRECTION('',(-999.999999999999,0.,0.));
#457=DIRECTION('',(0.,1.,1.30841038223648E-017));
#458=DIRECTION('',(1.,0.,0.));
#459=DIRECTION('',(-999.999999999999,0.,0.));
#460=DIRECTION('',(6.41654724417896E-017,3.27745875749472E-018,-1.));
#461=DIRECTION('',(0.,1.,3.27745875749472E-018));
#462=DIRECTION('',(-999.999999999999,0.,0.));
#463=DIRECTION('',(0.,-1.,-1.30841038223648E-017));
#464=DIRECTION('',(-1.,0.,0.));
#465=DIRECTION('',(-999.999999999999,0.,0.));
#466=DIRECTION('',(-6.41654724417896E-017,-3.27745875749472E-018,1.));
#467=DIRECTION('',(0.,-1.,-3.27745875749472E-018));
#468=DIRECTION('',(0.,0.,1.));
#469=DIRECTION('',(1.,0.,0.));
#470=DIRECTION('',(1.,0.,0.));
#471=DIRECTION('',(0.,0.,-1.));
#472=CARTESIAN_POINT('',(999.999999999999,22.5292546706769,-8.96666661179324));
#473=CARTESIAN_POINT('',(999.999999999999,22.5292546706769,-8.96666661179324));
#474=CARTESIAN_POINT('',(0.,22.5292546706769,-8.96666661179279));
#475=CARTESIAN_POINT('',(999.999999999999,22.5292546706769,-8.96666661179324));
#476=CARTESIAN_POINT('',(0.,24.4568322948007,-9.5));
#477=CARTESIAN_POINT('',(0.,24.4568322948007,-9.5));
#478=CARTESIAN_POINT('',(999.999999999999,24.4568322948007,-9.5));
#479=CARTESIAN_POINT('',(999.999999999999,24.4568322948007,-9.5));
#480=CARTESIAN_POINT('',(999.999999999999,24.4568322948007,-9.5));
#481=CARTESIAN_POINT('',(999.999999999999,10.,-5.5));
#482=CARTESIAN_POINT('',(999.999999999999,10.,7.5));
#483=CARTESIAN_POINT('',(999.999999999999,10.,-5.5));
#484=CARTESIAN_POINT('',(0.,10.,7.5));
#485=CARTESIAN_POINT('',(0.,10.,-5.5));
#486=CARTESIAN_POINT('',(999.999999999999,10.,7.5));
#487=CARTESIAN_POINT('',(999.999999999999,24.4568322948007,-9.5));
#488=CARTESIAN_POINT('',(999.999999999999,10.0000009507221,9.5));
#489=CARTESIAN_POINT('',(999.999999999999,10.,-5.5));
#490=CARTESIAN_POINT('',(999.999999999999,0.,9.5));
#491=CARTESIAN_POINT('',(999.999999999999,0.,9.5));
#492=CARTESIAN_POINT('',(999.999999999999,0.,-9.5));
#493=CARTESIAN_POINT('',(999.999999999999,0.,-9.5));
#494=CARTESIAN_POINT('',(999.999999999999,2.,-9.5));
#495=CARTESIAN_POINT('',(999.999999999999,2.,-9.5));
#496=CARTESIAN_POINT('',(999.999999999999,2.,7.5));
#497=CARTESIAN_POINT('',(999.999999999999,2.,7.5));
#498=CARTESIAN_POINT('',(999.999999999999,10.,7.5));
#499=CARTESIAN_POINT('',(999.999999999999,10.,-5.5));
#500=CARTESIAN_POINT('',(0.,10.0000009507221,9.5));
#501=CARTESIAN_POINT('',(0.,10.,-5.5));
#502=CARTESIAN_POINT('',(999.999999999999,10.0000009507221,9.5));
#503=CARTESIAN_POINT('',(0.,10.0000009507221,9.5));
#504=CARTESIAN_POINT('',(0.,2.,7.5));
#505=CARTESIAN_POINT('',(0.,10.,7.5));
#506=CARTESIAN_POINT('',(0.,2.,-9.5));
#507=CARTESIAN_POINT('',(0.,2.,7.5));
#508=CARTESIAN_POINT('',(0.,0.,-9.5));
#509=CARTESIAN_POINT('',(0.,2.,-9.5));
#510=CARTESIAN_POINT('',(0.,0.,9.5));
#511=CARTESIAN_POINT('',(0.,0.,-9.5));
#512=CARTESIAN_POINT('',(0.,0.,9.5));
#513=CARTESIAN_POINT('',(999.999999999999,2.,7.5));
#514=CARTESIAN_POINT('',(999.999999999999,2.,7.5));
#515=CARTESIAN_POINT('',(999.999999999999,2.,-9.5));
#516=CARTESIAN_POINT('',(999.999999999999,2.,-9.5));
#517=CARTESIAN_POINT('',(999.999999999999,0.,-9.5));
#518=CARTESIAN_POINT('',(999.999999999999,0.,-9.5));
#519=CARTESIAN_POINT('',(999.999999999999,0.,9.5));
#520=CARTESIAN_POINT('',(999.999999999999,0.,9.5));
#521=CARTESIAN_POINT('',(999.999999999999,10.0000009507221,9.5));
#522=CARTESIAN_POINT('',(0.,0.,0.));
#523=CARTESIAN_POINT('',(-2223.70164729468,6057.0094163509,999.999999999999));
#524=AXIS2_PLACEMENT_3D('',#472,#420,#421);
#525=AXIS2_PLACEMENT_3D('',#481,#426,#427);
#526=AXIS2_PLACEMENT_3D('',#483,#428,#429);
#527=AXIS2_PLACEMENT_3D('',#485,#430,#431);
#528=AXIS2_PLACEMENT_3D('',#487,#433,#434);
#529=AXIS2_PLACEMENT_3D('',#489,#435,#436);
#530=AXIS2_PLACEMENT_3D('',#499,#442,#443);
#531=AXIS2_PLACEMENT_3D('',#501,#444,#445);
#532=AXIS2_PLACEMENT_3D('',#503,#447,#448);
#533=AXIS2_PLACEMENT_3D('',#513,#454,#455);
#534=AXIS2_PLACEMENT_3D('',#515,#457,#458);
#535=AXIS2_PLACEMENT_3D('',#517,#460,#461);
#536=AXIS2_PLACEMENT_3D('',#519,#463,#464);
#537=AXIS2_PLACEMENT_3D('',#521,#466,#467);
#538=AXIS2_PLACEMENT_3D('',#522,#468,#469);
#539=AXIS2_PLACEMENT_3D('',#523,#470,#471);
#540=PLANE('',#524);
#541=PLANE('',#528);
#542=PLANE('',#532);
#543=PLANE('',#533);
#544=PLANE('',#534);
#545=PLANE('',#535);
#546=PLANE('',#536);
#547=PLANE('',#537);
#548=ADVANCED_FACE('',(#410),#540,.T.);
#549=ADVANCED_FACE('',(#411),#270,.F.);
#550=ADVANCED_FACE('',(#412),#541,.T.);
#551=ADVANCED_FACE('',(#413),#271,.T.);
#552=ADVANCED_FACE('',(#414),#542,.T.);
#553=ADVANCED_FACE('',(#415),#543,.T.);
#554=ADVANCED_FACE('',(#416),#544,.T.);
#555=ADVANCED_FACE('',(#417),#545,.T.);
#556=ADVANCED_FACE('',(#418),#546,.T.);
#557=ADVANCED_FACE('',(#419),#547,.T.);
#558=MANIFOLD_SOLID_BREP('Solid',#265);
#559=SHAPE_REPRESENTATION('RootProduct',(#539),#577);
#560=PRODUCT_DEFINITION_SHAPE('','',#564);
#561=PRODUCT_DEFINITION_SHAPE('','',#565);
#562=PRODUCT_DEFINITION_SHAPE('',$,#13);
#563=PRODUCT_DEFINITION_CONTEXT('part definition',#569,'');
#564=PRODUCT_DEFINITION('','',#566,#563);
#565=PRODUCT_DEFINITION('','',#567,#563);
#566=PRODUCT_DEFINITION_FORMATION('','',#571);
#567=PRODUCT_DEFINITION_FORMATION('','',#572);
#568=APPLICATION_PROTOCOL_DEFINITION('international standard',
'automotive_design',2003,#569);
#569=APPLICATION_CONTEXT(
'Core Data for Automotive Mechanical Design Process');
#570=PRODUCT_CONTEXT('part definition',#569,'');
#571=PRODUCT('Root','Root','',(#570));
#572=PRODUCT('119100HandgreepprofielBOIKON0',
'119100HandgreepprofielBOIKON0','',(#570));
#573=SHAPE_DEFINITION_REPRESENTATION(#560,#559);
#574=SHAPE_DEFINITION_REPRESENTATION(#561,#264);
#575=PRODUCT_RELATED_PRODUCT_CATEGORY('','',(#571,#572));
#576=UNCERTAINTY_MEASURE_WITH_UNIT(LENGTH_MEASURE(0.001),#579,
'DISTANCE_ACCURACY_VALUE',
'Maximum model space distance between geometric entities at asserted co
nnectivities');
#577=(
GEOMETRIC_REPRESENTATION_CONTEXT(3)
GLOBAL_UNCERTAINTY_ASSIGNED_CONTEXT((#576))
GLOBAL_UNIT_ASSIGNED_CONTEXT((#579,#581,#584))
REPRESENTATION_CONTEXT('Default Context','3D')
);
#578=(
GEOMETRIC_REPRESENTATION_CONTEXT(3)
GLOBAL_UNCERTAINTY_ASSIGNED_CONTEXT((#576))
GLOBAL_UNIT_ASSIGNED_CONTEXT((#579,#581,#584))
REPRESENTATION_CONTEXT('Default Context','3D')
);
#579=(
LENGTH_UNIT()
NAMED_UNIT(*)
SI_UNIT(.MILLI.,.METRE.)
);
#580=DIMENSIONAL_EXPONENTS(0.,0.,0.,0.,0.,0.,0.);
#581=(
CONVERSION_BASED_UNIT('degree',#583)
NAMED_UNIT(#580)
PLANE_ANGLE_UNIT()
);
#582=(
NAMED_UNIT(*)
PLANE_ANGLE_UNIT()
SI_UNIT($,.RADIAN.)
);
#583=PLANE_ANGLE_MEASURE_WITH_UNIT(PLANE_ANGLE_MEASURE(0.01745329252),#582);
#584=(
NAMED_UNIT(*)
SI_UNIT($,.STERADIAN.)
SOLID_ANGLE_UNIT()
);
ENDSEC;
END-ISO-10303-21;
