ISO-10303-21;
HEADER;
/* Generated by software containing ST-Developer
 * from STEP Tools, Inc. (www.steptools.com) 
 */
/* OPTION: using custom schema-name function */

FILE_DESCRIPTION(
/* description */ (''),
/* implementation_level */ '2;1');

FILE_NAME(
/* name */ '120805',
/* time_stamp */ '2014-10-06T13:39:45+02:00',
/* author */ (''),
/* organization */ (''),
/* preprocessor_version */ 'ST-DEVELOPER v14',
/* originating_system */ 'HiCAD 2013 1802.4 Build 509',
/* authorisation */ '');

FILE_SCHEMA (('AUTOMOTIVE_DESIGN { 1 0 10303 214 1 1 1 1 }'));
ENDSEC;

DATA;
#10=ITEM_DEFINED_TRANSFORMATION('','',#211,#212);
#11=(
REPRESENTATION_RELATIONSHIP('','',#253,#252)
REPRESENTATION_RELATIONSHIP_WITH_TRANSFORMATION(#10)
SHAPE_REPRESENTATION_RELATIONSHIP()
);
#12=CONTEXT_DEPENDENT_SHAPE_REPRESENTATION(#11,#256);
#13=NEXT_ASSEMBLY_USAGE_OCCURRENCE(
'120805Afdekkap voor inbus grijsBOIKON',
'120805Afdekkap voor inbus grijsBOIKON','',#258,#259,$);
#14=DRAUGHTING_PRE_DEFINED_CURVE_FONT('continuous');
#15=DRAUGHTING_PRE_DEFINED_CURVE_FONT('continuous');
#16=DRAUGHTING_PRE_DEFINED_CURVE_FONT('continuous');
#17=DRAUGHTING_PRE_DEFINED_CURVE_FONT('continuous');
#18=DRAUGHTING_PRE_DEFINED_CURVE_FONT('continuous');
#19=DRAUGHTING_PRE_DEFINED_CURVE_FONT('continuous');
#20=DRAUGHTING_PRE_DEFINED_CURVE_FONT('continuous');
#21=DRAUGHTING_PRE_DEFINED_CURVE_FONT('continuous');
#22=DRAUGHTING_PRE_DEFINED_CURVE_FONT('continuous');
#23=DRAUGHTING_PRE_DEFINED_CURVE_FONT('continuous');
#24=DRAUGHTING_PRE_DEFINED_CURVE_FONT('continuous');
#25=DRAUGHTING_PRE_DEFINED_CURVE_FONT('continuous');
#26=DRAUGHTING_PRE_DEFINED_CURVE_FONT('continuous');
#27=DRAUGHTING_PRE_DEFINED_CURVE_FONT('continuous');
#28=CURVE_STYLE(' ',#14,POSITIVE_LENGTH_MEASURE(0.352777777777778),#77);
#29=CURVE_STYLE(' ',#15,POSITIVE_LENGTH_MEASURE(0.352777777777778),#78);
#30=CURVE_STYLE(' ',#16,POSITIVE_LENGTH_MEASURE(0.352777777777778),#79);
#31=CURVE_STYLE(' ',#17,POSITIVE_LENGTH_MEASURE(0.352777777777778),#80);
#32=CURVE_STYLE(' ',#18,POSITIVE_LENGTH_MEASURE(0.352777777777778),#81);
#33=CURVE_STYLE(' ',#19,POSITIVE_LENGTH_MEASURE(0.352777777777778),#82);
#34=CURVE_STYLE(' ',#20,POSITIVE_LENGTH_MEASURE(0.352777777777778),#83);
#35=CURVE_STYLE(' ',#21,POSITIVE_LENGTH_MEASURE(0.352777777777778),#84);
#36=CURVE_STYLE(' ',#22,POSITIVE_LENGTH_MEASURE(0.352777777777778),#85);
#37=CURVE_STYLE(' ',#23,POSITIVE_LENGTH_MEASURE(0.352777777777778),#86);
#38=CURVE_STYLE(' ',#24,POSITIVE_LENGTH_MEASURE(0.352777777777778),#87);
#39=CURVE_STYLE(' ',#25,POSITIVE_LENGTH_MEASURE(0.352777777777778),#88);
#40=CURVE_STYLE(' ',#26,POSITIVE_LENGTH_MEASURE(0.352777777777778),#89);
#41=CURVE_STYLE(' ',#27,POSITIVE_LENGTH_MEASURE(0.352777777777778),#90);
#42=OVER_RIDING_STYLED_ITEM('Edge Colour',(#57),#127,#91);
#43=OVER_RIDING_STYLED_ITEM('Edge Colour',(#58),#128,#91);
#44=OVER_RIDING_STYLED_ITEM('Edge Colour',(#59),#127,#91);
#45=OVER_RIDING_STYLED_ITEM('Edge Colour',(#60),#129,#91);
#46=OVER_RIDING_STYLED_ITEM('Edge Colour',(#61),#128,#91);
#47=OVER_RIDING_STYLED_ITEM('Edge Colour',(#62),#130,#91);
#48=OVER_RIDING_STYLED_ITEM('Edge Colour',(#63),#129,#91);
#49=OVER_RIDING_STYLED_ITEM('Edge Colour',(#64),#131,#91);
#50=OVER_RIDING_STYLED_ITEM('Edge Colour',(#65),#130,#91);
#51=OVER_RIDING_STYLED_ITEM('Edge Colour',(#66),#132,#91);
#52=OVER_RIDING_STYLED_ITEM('Edge Colour',(#67),#131,#91);
#53=OVER_RIDING_STYLED_ITEM('Edge Colour',(#68),#133,#91);
#54=OVER_RIDING_STYLED_ITEM('Edge Colour',(#69),#132,#91);
#55=OVER_RIDING_STYLED_ITEM('Edge Colour',(#70),#133,#91);
#56=PRESENTATION_STYLE_ASSIGNMENT((#71));
#57=PRESENTATION_STYLE_ASSIGNMENT((#28));
#58=PRESENTATION_STYLE_ASSIGNMENT((#29));
#59=PRESENTATION_STYLE_ASSIGNMENT((#30));
#60=PRESENTATION_STYLE_ASSIGNMENT((#31));
#61=PRESENTATION_STYLE_ASSIGNMENT((#32));
#62=PRESENTATION_STYLE_ASSIGNMENT((#33));
#63=PRESENTATION_STYLE_ASSIGNMENT((#34));
#64=PRESENTATION_STYLE_ASSIGNMENT((#35));
#65=PRESENTATION_STYLE_ASSIGNMENT((#36));
#66=PRESENTATION_STYLE_ASSIGNMENT((#37));
#67=PRESENTATION_STYLE_ASSIGNMENT((#38));
#68=PRESENTATION_STYLE_ASSIGNMENT((#39));
#69=PRESENTATION_STYLE_ASSIGNMENT((#40));
#70=PRESENTATION_STYLE_ASSIGNMENT((#41));
#71=SURFACE_STYLE_USAGE(.BOTH.,#72);
#72=SURFACE_SIDE_STYLE('',(#73));
#73=SURFACE_STYLE_FILL_AREA(#74);
#74=FILL_AREA_STYLE('',(#75));
#75=FILL_AREA_STYLE_COLOUR('',#76);
#76=COLOUR_RGB('',0.921568989753723,0.921568989753723,0.921568989753723);
#77=COLOUR_RGB('',0.,0.,0.);
#78=COLOUR_RGB('',0.,0.,0.);
#79=COLOUR_RGB('',0.,0.,0.);
#80=COLOUR_RGB('',0.,0.,0.);
#81=COLOUR_RGB('',0.,0.,0.);
#82=COLOUR_RGB('',0.,0.,0.);
#83=COLOUR_RGB('',0.,0.,0.);
#84=COLOUR_RGB('',0.,0.,0.);
#85=COLOUR_RGB('',0.,0.,0.);
#86=COLOUR_RGB('',0.,0.,0.);
#87=COLOUR_RGB('',0.,0.,0.);
#88=COLOUR_RGB('',0.,0.,0.);
#89=COLOUR_RGB('',0.,0.,0.);
#90=COLOUR_RGB('',0.,0.,0.);
#91=STYLED_ITEM('Solid Colour',(#56),#225);
#92=MECHANICAL_DESIGN_GEOMETRIC_PRESENTATION_REPRESENTATION(
'Container for Styled_item',(#91,#42,#43,#44,#45,#46,#47,#48,#49,#50,#51,
#52,#53,#54,#55),#271);
#93=PRESENTATION_LAYER_ASSIGNMENT('APPLE','1',(#226,#225));
#94=CLOSED_SHELL('',(#217,#218,#219,#220,#221,#222,#223,#224));
#95=CONICAL_SURFACE('',#208,12.,63.434948822922);
#96=CYLINDRICAL_SURFACE('',#198,3.69999999999999);
#97=CYLINDRICAL_SURFACE('',#202,5.19999999999999);
#98=CYLINDRICAL_SURFACE('',#206,12.);
#99=ORIENTED_EDGE('',*,*,#127,.T.);
#100=ORIENTED_EDGE('',*,*,#128,.F.);
#101=ORIENTED_EDGE('',*,*,#127,.T.);
#102=ORIENTED_EDGE('',*,*,#129,.T.);
#103=ORIENTED_EDGE('',*,*,#128,.F.);
#104=ORIENTED_EDGE('',*,*,#130,.T.);
#105=ORIENTED_EDGE('',*,*,#129,.F.);
#106=ORIENTED_EDGE('',*,*,#131,.T.);
#107=ORIENTED_EDGE('',*,*,#130,.F.);
#108=ORIENTED_EDGE('',*,*,#132,.T.);
#109=ORIENTED_EDGE('',*,*,#131,.F.);
#110=ORIENTED_EDGE('',*,*,#133,.T.);
#111=ORIENTED_EDGE('',*,*,#132,.F.);
#112=ORIENTED_EDGE('',*,*,#133,.F.);
#113=CIRCLE('',#197,3.69999999999999);
#114=CIRCLE('',#199,3.69999999999999);
#115=CIRCLE('',#201,5.19999999999999);
#116=CIRCLE('',#203,5.19999999999999);
#117=CIRCLE('',#205,12.);
#118=CIRCLE('',#207,12.);
#119=CIRCLE('',#209,10.);
#120=VERTEX_POINT('',#229);
#121=VERTEX_POINT('',#232);
#122=VERTEX_POINT('',#235);
#123=VERTEX_POINT('',#238);
#124=VERTEX_POINT('',#241);
#125=VERTEX_POINT('',#244);
#126=VERTEX_POINT('',#247);
#127=EDGE_CURVE('',#120,#120,#113,.T.);
#128=EDGE_CURVE('',#121,#121,#114,.T.);
#129=EDGE_CURVE('',#122,#122,#115,.T.);
#130=EDGE_CURVE('',#123,#123,#116,.T.);
#131=EDGE_CURVE('',#124,#124,#117,.T.);
#132=EDGE_CURVE('',#125,#125,#118,.T.);
#133=EDGE_CURVE('',#126,#126,#119,.T.);
#134=EDGE_LOOP('',(#99));
#135=EDGE_LOOP('',(#100));
#136=EDGE_LOOP('',(#101));
#137=EDGE_LOOP('',(#102));
#138=EDGE_LOOP('',(#103));
#139=EDGE_LOOP('',(#104));
#140=EDGE_LOOP('',(#105));
#141=EDGE_LOOP('',(#106));
#142=EDGE_LOOP('',(#107));
#143=EDGE_LOOP('',(#108));
#144=EDGE_LOOP('',(#109));
#145=EDGE_LOOP('',(#110));
#146=EDGE_LOOP('',(#111));
#147=EDGE_LOOP('',(#112));
#148=FACE_BOUND('',#134,.T.);
#149=FACE_BOUND('',#135,.F.);
#150=FACE_BOUND('',#136,.F.);
#151=FACE_BOUND('',#137,.T.);
#152=FACE_BOUND('',#138,.T.);
#153=FACE_BOUND('',#139,.T.);
#154=FACE_BOUND('',#140,.T.);
#155=FACE_BOUND('',#141,.T.);
#156=FACE_BOUND('',#142,.T.);
#157=FACE_BOUND('',#143,.T.);
#158=FACE_BOUND('',#144,.T.);
#159=FACE_BOUND('',#145,.T.);
#160=FACE_BOUND('',#146,.T.);
#161=FACE_BOUND('',#147,.T.);
#162=DIRECTION('',(0.,-1.,0.));
#163=DIRECTION('',(-1.,0.,0.));
#164=DIRECTION('',(0.,-1.,0.));
#165=DIRECTION('',(0.,0.,-3.69999999999999));
#166=DIRECTION('',(0.,1.,0.));
#167=DIRECTION('',(-1.,0.,0.));
#168=DIRECTION('',(0.,-1.,0.));
#169=DIRECTION('',(0.,0.,-3.69999999999999));
#170=DIRECTION('',(0.,-1.,0.));
#171=DIRECTION('',(-1.,0.,0.));
#172=DIRECTION('',(0.,-1.,0.));
#173=DIRECTION('',(0.,0.,-5.19999999999999));
#174=DIRECTION('',(0.,-1.,0.));
#175=DIRECTION('',(-1.,0.,0.));
#176=DIRECTION('',(0.,-1.,0.));
#177=DIRECTION('',(0.,0.,-5.19999999999999));
#178=DIRECTION('',(0.,-1.,0.));
#179=DIRECTION('',(-1.,0.,0.));
#180=DIRECTION('',(0.,-1.,0.));
#181=DIRECTION('',(0.,0.,-12.));
#182=DIRECTION('',(0.,-1.,0.));
#183=DIRECTION('',(-1.,0.,0.));
#184=DIRECTION('',(0.,-1.,0.));
#185=DIRECTION('',(0.,0.,-12.));
#186=DIRECTION('',(0.,-1.,0.));
#187=DIRECTION('',(-1.,0.,0.));
#188=DIRECTION('',(0.,-1.,0.));
#189=DIRECTION('',(0.,0.,-10.));
#190=DIRECTION('',(0.,1.,0.));
#191=DIRECTION('',(1.,0.,0.));
#192=DIRECTION('',(0.,0.,1.));
#193=DIRECTION('',(1.,0.,0.));
#194=DIRECTION('',(0.,0.,1.));
#195=DIRECTION('',(1.,0.,0.));
#196=AXIS2_PLACEMENT_3D('',#228,#162,#163);
#197=AXIS2_PLACEMENT_3D('',#230,#164,#165);
#198=AXIS2_PLACEMENT_3D('',#231,#166,#167);
#199=AXIS2_PLACEMENT_3D('',#233,#168,#169);
#200=AXIS2_PLACEMENT_3D('',#234,#170,#171);
#201=AXIS2_PLACEMENT_3D('',#236,#172,#173);
#202=AXIS2_PLACEMENT_3D('',#237,#174,#175);
#203=AXIS2_PLACEMENT_3D('',#239,#176,#177);
#204=AXIS2_PLACEMENT_3D('',#240,#178,#179);
#205=AXIS2_PLACEMENT_3D('',#242,#180,#181);
#206=AXIS2_PLACEMENT_3D('',#243,#182,#183);
#207=AXIS2_PLACEMENT_3D('',#245,#184,#185);
#208=AXIS2_PLACEMENT_3D('',#246,#186,#187);
#209=AXIS2_PLACEMENT_3D('',#248,#188,#189);
#210=AXIS2_PLACEMENT_3D('',#249,#190,#191);
#211=AXIS2_PLACEMENT_3D('',#250,#192,#193);
#212=AXIS2_PLACEMENT_3D('',#251,#194,#195);
#213=PLANE('',#196);
#214=PLANE('',#200);
#215=PLANE('',#204);
#216=PLANE('',#210);
#217=ADVANCED_FACE('',(#148),#213,.T.);
#218=ADVANCED_FACE('',(#149,#150),#96,.F.);
#219=ADVANCED_FACE('',(#151,#152),#214,.T.);
#220=ADVANCED_FACE('',(#153,#154),#97,.T.);
#221=ADVANCED_FACE('',(#155,#156),#215,.T.);
#222=ADVANCED_FACE('',(#157,#158),#98,.T.);
#223=ADVANCED_FACE('',(#159,#160),#95,.T.);
#224=ADVANCED_FACE('',(#161),#216,.T.);
#225=MANIFOLD_SOLID_BREP('Solid',#94);
#226=GEOMETRIC_SET('Vertexshell',(#227));
#227=CARTESIAN_POINT('',(0.,0.,0.));
#228=CARTESIAN_POINT('',(0.,0.,0.));
#229=CARTESIAN_POINT('',(-3.69999999999999,0.,0.));
#230=CARTESIAN_POINT('',(0.,0.,0.));
#231=CARTESIAN_POINT('',(0.,-5.,0.));
#232=CARTESIAN_POINT('',(-3.69999999999999,-5.,0.));
#233=CARTESIAN_POINT('',(0.,-5.,0.));
#234=CARTESIAN_POINT('',(0.,-5.,0.));
#235=CARTESIAN_POINT('',(-5.19999999999999,-5.,0.));
#236=CARTESIAN_POINT('',(0.,-5.,0.));
#237=CARTESIAN_POINT('',(0.,0.,0.));
#238=CARTESIAN_POINT('',(-5.19999999999999,0.,0.));
#239=CARTESIAN_POINT('',(0.,0.,0.));
#240=CARTESIAN_POINT('',(0.,0.,0.));
#241=CARTESIAN_POINT('',(-12.,0.,0.));
#242=CARTESIAN_POINT('',(0.,0.,0.));
#243=CARTESIAN_POINT('',(0.,0.5,0.));
#244=CARTESIAN_POINT('',(-12.,0.5,0.));
#245=CARTESIAN_POINT('',(0.,0.5,0.));
#246=CARTESIAN_POINT('',(0.,0.5,0.));
#247=CARTESIAN_POINT('',(-10.,1.5,0.));
#248=CARTESIAN_POINT('',(0.,1.5,0.));
#249=CARTESIAN_POINT('',(0.,1.5,0.));
#250=CARTESIAN_POINT('',(0.,0.,0.));
#251=CARTESIAN_POINT('',(256.002230471016,247.525458568721,398.888576059042));
#252=SHAPE_REPRESENTATION('RootProduct',(#212),#271);
#253=SHAPE_REPRESENTATION('HiCADMultiBody',(#226,#225,#211),#272);
#254=PRODUCT_DEFINITION_SHAPE('','',#258);
#255=PRODUCT_DEFINITION_SHAPE('','',#259);
#256=PRODUCT_DEFINITION_SHAPE('',$,#13);
#257=PRODUCT_DEFINITION_CONTEXT('part definition',#263,'');
#258=PRODUCT_DEFINITION('','',#260,#257);
#259=PRODUCT_DEFINITION('','',#261,#257);
#260=PRODUCT_DEFINITION_FORMATION('','',#265);
#261=PRODUCT_DEFINITION_FORMATION('','',#266);
#262=APPLICATION_PROTOCOL_DEFINITION('international standard',
'automotive_design',2003,#263);
#263=APPLICATION_CONTEXT(
'Core Data for Automotive Mechanical Design Process');
#264=PRODUCT_CONTEXT('part definition',#263,'');
#265=PRODUCT('Root','Root','',(#264));
#266=PRODUCT('120805Afdekkap voor inbus grijsBOIKON',
'120805Afdekkap voor inbus grijsBOIKON','',(#264));
#267=SHAPE_DEFINITION_REPRESENTATION(#254,#252);
#268=SHAPE_DEFINITION_REPRESENTATION(#255,#253);
#269=PRODUCT_RELATED_PRODUCT_CATEGORY('','',(#265,#266));
#270=UNCERTAINTY_MEASURE_WITH_UNIT(LENGTH_MEASURE(0.001),#273,
'DISTANCE_ACCURACY_VALUE',
'Maximum model space distance between geometric entities at asserted co
nnectivities');
#271=(
GEOMETRIC_REPRESENTATION_CONTEXT(3)
GLOBAL_UNCERTAINTY_ASSIGNED_CONTEXT((#270))
GLOBAL_UNIT_ASSIGNED_CONTEXT((#273,#275,#278))
REPRESENTATION_CONTEXT('Default Context','3D')
);
#272=(
GEOMETRIC_REPRESENTATION_CONTEXT(3)
GLOBAL_UNCERTAINTY_ASSIGNED_CONTEXT((#270))
GLOBAL_UNIT_ASSIGNED_CONTEXT((#273,#275,#278))
REPRESENTATION_CONTEXT('Default Context','3D')
);
#273=(
LENGTH_UNIT()
NAMED_UNIT(*)
SI_UNIT(.MILLI.,.METRE.)
);
#274=DIMENSIONAL_EXPONENTS(0.,0.,0.,0.,0.,0.,0.);
#275=(
CONVERSION_BASED_UNIT('degree',#277)
NAMED_UNIT(#274)
PLANE_ANGLE_UNIT()
);
#276=(
NAMED_UNIT(*)
PLANE_ANGLE_UNIT()
SI_UNIT($,.RADIAN.)
);
#277=PLANE_ANGLE_MEASURE_WITH_UNIT(PLANE_ANGLE_MEASURE(0.01745329252),#276);
#278=(
NAMED_UNIT(*)
SI_UNIT($,.STERADIAN.)
SOLID_ANGLE_UNIT()
);
ENDSEC;
END-ISO-10303-21;
