ISO-10303-21;
HEADER;
/* Generated by software containing ST-Developer
 * from STEP Tools, Inc. (www.steptools.com) 
 */
/* OPTION: using custom schema-name function */

FILE_DESCRIPTION(
/* description */ (''),
/* implementation_level */ '2;1');

FILE_NAME(
/* name */ '122005',
/* time_stamp */ '2014-10-06T13:40:35+02:00',
/* author */ (''),
/* organization */ (''),
/* preprocessor_version */ 'ST-DEVELOPER v14',
/* originating_system */ 'HiCAD 2013 1802.4 Build 509',
/* authorisation */ '');

FILE_SCHEMA (('AUTOMOTIVE_DESIGN { 1 0 10303 214 1 1 1 1 }'));
ENDSEC;

DATA;
#10=ITEM_DEFINED_TRANSFORMATION('','',#447,#448);
#11=(
REPRESENTATION_RELATIONSHIP('','',#521,#520)
REPRESENTATION_RELATIONSHIP_WITH_TRANSFORMATION(#10)
SHAPE_REPRESENTATION_RELATIONSHIP()
);
#12=CONTEXT_DEPENDENT_SHAPE_REPRESENTATION(#11,#524);
#13=NEXT_ASSEMBLY_USAGE_OCCURRENCE('122005Afdekkap voor moer M8BOIKON',
'122005Afdekkap voor moer M8BOIKON','',#526,#527,$);
#14=DRAUGHTING_PRE_DEFINED_CURVE_FONT('continuous');
#15=DRAUGHTING_PRE_DEFINED_CURVE_FONT('continuous');
#16=DRAUGHTING_PRE_DEFINED_CURVE_FONT('continuous');
#17=DRAUGHTING_PRE_DEFINED_CURVE_FONT('continuous');
#18=DRAUGHTING_PRE_DEFINED_CURVE_FONT('continuous');
#19=DRAUGHTING_PRE_DEFINED_CURVE_FONT('continuous');
#20=DRAUGHTING_PRE_DEFINED_CURVE_FONT('continuous');
#21=DRAUGHTING_PRE_DEFINED_CURVE_FONT('continuous');
#22=DRAUGHTING_PRE_DEFINED_CURVE_FONT('continuous');
#23=DRAUGHTING_PRE_DEFINED_CURVE_FONT('continuous');
#24=DRAUGHTING_PRE_DEFINED_CURVE_FONT('continuous');
#25=DRAUGHTING_PRE_DEFINED_CURVE_FONT('continuous');
#26=DRAUGHTING_PRE_DEFINED_CURVE_FONT('continuous');
#27=DRAUGHTING_PRE_DEFINED_CURVE_FONT('continuous');
#28=DRAUGHTING_PRE_DEFINED_CURVE_FONT('continuous');
#29=DRAUGHTING_PRE_DEFINED_CURVE_FONT('continuous');
#30=DRAUGHTING_PRE_DEFINED_CURVE_FONT('continuous');
#31=DRAUGHTING_PRE_DEFINED_CURVE_FONT('continuous');
#32=DRAUGHTING_PRE_DEFINED_CURVE_FONT('continuous');
#33=DRAUGHTING_PRE_DEFINED_CURVE_FONT('continuous');
#34=DRAUGHTING_PRE_DEFINED_CURVE_FONT('continuous');
#35=DRAUGHTING_PRE_DEFINED_CURVE_FONT('continuous');
#36=DRAUGHTING_PRE_DEFINED_CURVE_FONT('continuous');
#37=DRAUGHTING_PRE_DEFINED_CURVE_FONT('continuous');
#38=DRAUGHTING_PRE_DEFINED_CURVE_FONT('continuous');
#39=DRAUGHTING_PRE_DEFINED_CURVE_FONT('continuous');
#40=DRAUGHTING_PRE_DEFINED_CURVE_FONT('continuous');
#41=DRAUGHTING_PRE_DEFINED_CURVE_FONT('continuous');
#42=DRAUGHTING_PRE_DEFINED_CURVE_FONT('continuous');
#43=DRAUGHTING_PRE_DEFINED_CURVE_FONT('continuous');
#44=DRAUGHTING_PRE_DEFINED_CURVE_FONT('continuous');
#45=DRAUGHTING_PRE_DEFINED_CURVE_FONT('continuous');
#46=DRAUGHTING_PRE_DEFINED_CURVE_FONT('continuous');
#47=DRAUGHTING_PRE_DEFINED_CURVE_FONT('continuous');
#48=DRAUGHTING_PRE_DEFINED_CURVE_FONT('continuous');
#49=DRAUGHTING_PRE_DEFINED_CURVE_FONT('continuous');
#50=DRAUGHTING_PRE_DEFINED_CURVE_FONT('continuous');
#51=DRAUGHTING_PRE_DEFINED_CURVE_FONT('continuous');
#52=DRAUGHTING_PRE_DEFINED_CURVE_FONT('continuous');
#53=DRAUGHTING_PRE_DEFINED_CURVE_FONT('continuous');
#54=DRAUGHTING_PRE_DEFINED_CURVE_FONT('continuous');
#55=DRAUGHTING_PRE_DEFINED_CURVE_FONT('continuous');
#56=CURVE_STYLE(' ',#14,POSITIVE_LENGTH_MEASURE(0.352777777777778),#189);
#57=CURVE_STYLE(' ',#15,POSITIVE_LENGTH_MEASURE(0.352777777777778),#190);
#58=CURVE_STYLE(' ',#16,POSITIVE_LENGTH_MEASURE(0.352777777777778),#191);
#59=CURVE_STYLE(' ',#17,POSITIVE_LENGTH_MEASURE(0.352777777777778),#192);
#60=CURVE_STYLE(' ',#18,POSITIVE_LENGTH_MEASURE(0.352777777777778),#193);
#61=CURVE_STYLE(' ',#19,POSITIVE_LENGTH_MEASURE(0.352777777777778),#194);
#62=CURVE_STYLE(' ',#20,POSITIVE_LENGTH_MEASURE(0.352777777777778),#195);
#63=CURVE_STYLE(' ',#21,POSITIVE_LENGTH_MEASURE(0.352777777777778),#196);
#64=CURVE_STYLE(' ',#22,POSITIVE_LENGTH_MEASURE(0.352777777777778),#197);
#65=CURVE_STYLE(' ',#23,POSITIVE_LENGTH_MEASURE(0.352777777777778),#198);
#66=CURVE_STYLE(' ',#24,POSITIVE_LENGTH_MEASURE(0.352777777777778),#199);
#67=CURVE_STYLE(' ',#25,POSITIVE_LENGTH_MEASURE(0.352777777777778),#200);
#68=CURVE_STYLE(' ',#26,POSITIVE_LENGTH_MEASURE(0.352777777777778),#201);
#69=CURVE_STYLE(' ',#27,POSITIVE_LENGTH_MEASURE(0.352777777777778),#202);
#70=CURVE_STYLE(' ',#28,POSITIVE_LENGTH_MEASURE(0.352777777777778),#203);
#71=CURVE_STYLE(' ',#29,POSITIVE_LENGTH_MEASURE(0.352777777777778),#204);
#72=CURVE_STYLE(' ',#30,POSITIVE_LENGTH_MEASURE(0.352777777777778),#205);
#73=CURVE_STYLE(' ',#31,POSITIVE_LENGTH_MEASURE(0.352777777777778),#206);
#74=CURVE_STYLE(' ',#32,POSITIVE_LENGTH_MEASURE(0.352777777777778),#207);
#75=CURVE_STYLE(' ',#33,POSITIVE_LENGTH_MEASURE(0.352777777777778),#208);
#76=CURVE_STYLE(' ',#34,POSITIVE_LENGTH_MEASURE(0.352777777777778),#209);
#77=CURVE_STYLE(' ',#35,POSITIVE_LENGTH_MEASURE(0.352777777777778),#210);
#78=CURVE_STYLE(' ',#36,POSITIVE_LENGTH_MEASURE(0.352777777777778),#211);
#79=CURVE_STYLE(' ',#37,POSITIVE_LENGTH_MEASURE(0.352777777777778),#212);
#80=CURVE_STYLE(' ',#38,POSITIVE_LENGTH_MEASURE(0.352777777777778),#213);
#81=CURVE_STYLE(' ',#39,POSITIVE_LENGTH_MEASURE(0.352777777777778),#214);
#82=CURVE_STYLE(' ',#40,POSITIVE_LENGTH_MEASURE(0.352777777777778),#215);
#83=CURVE_STYLE(' ',#41,POSITIVE_LENGTH_MEASURE(0.352777777777778),#216);
#84=CURVE_STYLE(' ',#42,POSITIVE_LENGTH_MEASURE(0.352777777777778),#217);
#85=CURVE_STYLE(' ',#43,POSITIVE_LENGTH_MEASURE(0.352777777777778),#218);
#86=CURVE_STYLE(' ',#44,POSITIVE_LENGTH_MEASURE(0.352777777777778),#219);
#87=CURVE_STYLE(' ',#45,POSITIVE_LENGTH_MEASURE(0.352777777777778),#220);
#88=CURVE_STYLE(' ',#46,POSITIVE_LENGTH_MEASURE(0.352777777777778),#221);
#89=CURVE_STYLE(' ',#47,POSITIVE_LENGTH_MEASURE(0.352777777777778),#222);
#90=CURVE_STYLE(' ',#48,POSITIVE_LENGTH_MEASURE(0.352777777777778),#223);
#91=CURVE_STYLE(' ',#49,POSITIVE_LENGTH_MEASURE(0.352777777777778),#224);
#92=CURVE_STYLE(' ',#50,POSITIVE_LENGTH_MEASURE(0.352777777777778),#225);
#93=CURVE_STYLE(' ',#51,POSITIVE_LENGTH_MEASURE(0.352777777777778),#226);
#94=CURVE_STYLE(' ',#52,POSITIVE_LENGTH_MEASURE(0.352777777777778),#227);
#95=CURVE_STYLE(' ',#53,POSITIVE_LENGTH_MEASURE(0.352777777777778),#228);
#96=CURVE_STYLE(' ',#54,POSITIVE_LENGTH_MEASURE(0.352777777777778),#229);
#97=CURVE_STYLE(' ',#55,POSITIVE_LENGTH_MEASURE(0.352777777777778),#230);
#98=OVER_RIDING_STYLED_ITEM('Edge Colour',(#141),#334,#231);
#99=OVER_RIDING_STYLED_ITEM('Edge Colour',(#142),#335,#231);
#100=OVER_RIDING_STYLED_ITEM('Edge Colour',(#143),#336,#231);
#101=OVER_RIDING_STYLED_ITEM('Edge Colour',(#144),#337,#231);
#102=OVER_RIDING_STYLED_ITEM('Edge Colour',(#145),#338,#231);
#103=OVER_RIDING_STYLED_ITEM('Edge Colour',(#146),#339,#231);
#104=OVER_RIDING_STYLED_ITEM('Edge Colour',(#147),#340,#231);
#105=OVER_RIDING_STYLED_ITEM('Edge Colour',(#148),#334,#231);
#106=OVER_RIDING_STYLED_ITEM('Edge Colour',(#149),#341,#231);
#107=OVER_RIDING_STYLED_ITEM('Edge Colour',(#150),#341,#231);
#108=OVER_RIDING_STYLED_ITEM('Edge Colour',(#151),#342,#231);
#109=OVER_RIDING_STYLED_ITEM('Edge Colour',(#152),#342,#231);
#110=OVER_RIDING_STYLED_ITEM('Edge Colour',(#153),#343,#231);
#111=OVER_RIDING_STYLED_ITEM('Edge Colour',(#154),#344,#231);
#112=OVER_RIDING_STYLED_ITEM('Edge Colour',(#155),#335,#231);
#113=OVER_RIDING_STYLED_ITEM('Edge Colour',(#156),#345,#231);
#114=OVER_RIDING_STYLED_ITEM('Edge Colour',(#157),#343,#231);
#115=OVER_RIDING_STYLED_ITEM('Edge Colour',(#158),#346,#231);
#116=OVER_RIDING_STYLED_ITEM('Edge Colour',(#159),#347,#231);
#117=OVER_RIDING_STYLED_ITEM('Edge Colour',(#160),#348,#231);
#118=OVER_RIDING_STYLED_ITEM('Edge Colour',(#161),#349,#231);
#119=OVER_RIDING_STYLED_ITEM('Edge Colour',(#162),#350,#231);
#120=OVER_RIDING_STYLED_ITEM('Edge Colour',(#163),#346,#231);
#121=OVER_RIDING_STYLED_ITEM('Edge Colour',(#164),#345,#231);
#122=OVER_RIDING_STYLED_ITEM('Edge Colour',(#165),#340,#231);
#123=OVER_RIDING_STYLED_ITEM('Edge Colour',(#166),#351,#231);
#124=OVER_RIDING_STYLED_ITEM('Edge Colour',(#167),#347,#231);
#125=OVER_RIDING_STYLED_ITEM('Edge Colour',(#168),#351,#231);
#126=OVER_RIDING_STYLED_ITEM('Edge Colour',(#169),#339,#231);
#127=OVER_RIDING_STYLED_ITEM('Edge Colour',(#170),#352,#231);
#128=OVER_RIDING_STYLED_ITEM('Edge Colour',(#171),#348,#231);
#129=OVER_RIDING_STYLED_ITEM('Edge Colour',(#172),#352,#231);
#130=OVER_RIDING_STYLED_ITEM('Edge Colour',(#173),#338,#231);
#131=OVER_RIDING_STYLED_ITEM('Edge Colour',(#174),#353,#231);
#132=OVER_RIDING_STYLED_ITEM('Edge Colour',(#175),#349,#231);
#133=OVER_RIDING_STYLED_ITEM('Edge Colour',(#176),#353,#231);
#134=OVER_RIDING_STYLED_ITEM('Edge Colour',(#177),#337,#231);
#135=OVER_RIDING_STYLED_ITEM('Edge Colour',(#178),#354,#231);
#136=OVER_RIDING_STYLED_ITEM('Edge Colour',(#179),#350,#231);
#137=OVER_RIDING_STYLED_ITEM('Edge Colour',(#180),#354,#231);
#138=OVER_RIDING_STYLED_ITEM('Edge Colour',(#181),#336,#231);
#139=OVER_RIDING_STYLED_ITEM('Edge Colour',(#182),#344,#231);
#140=PRESENTATION_STYLE_ASSIGNMENT((#183));
#141=PRESENTATION_STYLE_ASSIGNMENT((#56));
#142=PRESENTATION_STYLE_ASSIGNMENT((#57));
#143=PRESENTATION_STYLE_ASSIGNMENT((#58));
#144=PRESENTATION_STYLE_ASSIGNMENT((#59));
#145=PRESENTATION_STYLE_ASSIGNMENT((#60));
#146=PRESENTATION_STYLE_ASSIGNMENT((#61));
#147=PRESENTATION_STYLE_ASSIGNMENT((#62));
#148=PRESENTATION_STYLE_ASSIGNMENT((#63));
#149=PRESENTATION_STYLE_ASSIGNMENT((#64));
#150=PRESENTATION_STYLE_ASSIGNMENT((#65));
#151=PRESENTATION_STYLE_ASSIGNMENT((#66));
#152=PRESENTATION_STYLE_ASSIGNMENT((#67));
#153=PRESENTATION_STYLE_ASSIGNMENT((#68));
#154=PRESENTATION_STYLE_ASSIGNMENT((#69));
#155=PRESENTATION_STYLE_ASSIGNMENT((#70));
#156=PRESENTATION_STYLE_ASSIGNMENT((#71));
#157=PRESENTATION_STYLE_ASSIGNMENT((#72));
#158=PRESENTATION_STYLE_ASSIGNMENT((#73));
#159=PRESENTATION_STYLE_ASSIGNMENT((#74));
#160=PRESENTATION_STYLE_ASSIGNMENT((#75));
#161=PRESENTATION_STYLE_ASSIGNMENT((#76));
#162=PRESENTATION_STYLE_ASSIGNMENT((#77));
#163=PRESENTATION_STYLE_ASSIGNMENT((#78));
#164=PRESENTATION_STYLE_ASSIGNMENT((#79));
#165=PRESENTATION_STYLE_ASSIGNMENT((#80));
#166=PRESENTATION_STYLE_ASSIGNMENT((#81));
#167=PRESENTATION_STYLE_ASSIGNMENT((#82));
#168=PRESENTATION_STYLE_ASSIGNMENT((#83));
#169=PRESENTATION_STYLE_ASSIGNMENT((#84));
#170=PRESENTATION_STYLE_ASSIGNMENT((#85));
#171=PRESENTATION_STYLE_ASSIGNMENT((#86));
#172=PRESENTATION_STYLE_ASSIGNMENT((#87));
#173=PRESENTATION_STYLE_ASSIGNMENT((#88));
#174=PRESENTATION_STYLE_ASSIGNMENT((#89));
#175=PRESENTATION_STYLE_ASSIGNMENT((#90));
#176=PRESENTATION_STYLE_ASSIGNMENT((#91));
#177=PRESENTATION_STYLE_ASSIGNMENT((#92));
#178=PRESENTATION_STYLE_ASSIGNMENT((#93));
#179=PRESENTATION_STYLE_ASSIGNMENT((#94));
#180=PRESENTATION_STYLE_ASSIGNMENT((#95));
#181=PRESENTATION_STYLE_ASSIGNMENT((#96));
#182=PRESENTATION_STYLE_ASSIGNMENT((#97));
#183=SURFACE_STYLE_USAGE(.BOTH.,#184);
#184=SURFACE_SIDE_STYLE('',(#185));
#185=SURFACE_STYLE_FILL_AREA(#186);
#186=FILL_AREA_STYLE('',(#187));
#187=FILL_AREA_STYLE_COLOUR('',#188);
#188=COLOUR_RGB('',0.32548999786377,0.305882006883621,0.352941006422043);
#189=COLOUR_RGB('',0.,0.,0.);
#190=COLOUR_RGB('',0.,0.,0.);
#191=COLOUR_RGB('',0.,0.,0.);
#192=COLOUR_RGB('',0.,0.,0.);
#193=COLOUR_RGB('',0.,0.,0.);
#194=COLOUR_RGB('',0.,0.,0.);
#195=COLOUR_RGB('',0.,0.,0.);
#196=COLOUR_RGB('',0.,0.,0.);
#197=COLOUR_RGB('',0.,0.,0.);
#198=COLOUR_RGB('',0.,0.,0.);
#199=COLOUR_RGB('',0.,0.,0.);
#200=COLOUR_RGB('',0.,0.,0.);
#201=COLOUR_RGB('',0.,0.,0.);
#202=COLOUR_RGB('',0.,0.,0.);
#203=COLOUR_RGB('',0.,0.,0.);
#204=COLOUR_RGB('',0.,0.,0.);
#205=COLOUR_RGB('',0.,0.,0.);
#206=COLOUR_RGB('',0.,0.,0.);
#207=COLOUR_RGB('',0.,0.,0.);
#208=COLOUR_RGB('',0.,0.,0.);
#209=COLOUR_RGB('',0.,0.,0.);
#210=COLOUR_RGB('',0.,0.,0.);
#211=COLOUR_RGB('',0.,0.,0.);
#212=COLOUR_RGB('',0.,0.,0.);
#213=COLOUR_RGB('',0.,0.,0.);
#214=COLOUR_RGB('',0.,0.,0.);
#215=COLOUR_RGB('',0.,0.,0.);
#216=COLOUR_RGB('',0.,0.,0.);
#217=COLOUR_RGB('',0.,0.,0.);
#218=COLOUR_RGB('',0.,0.,0.);
#219=COLOUR_RGB('',0.,0.,0.);
#220=COLOUR_RGB('',0.,0.,0.);
#221=COLOUR_RGB('',0.,0.,0.);
#222=COLOUR_RGB('',0.,0.,0.);
#223=COLOUR_RGB('',0.,0.,0.);
#224=COLOUR_RGB('',0.,0.,0.);
#225=COLOUR_RGB('',0.,0.,0.);
#226=COLOUR_RGB('',0.,0.,0.);
#227=COLOUR_RGB('',0.,0.,0.);
#228=COLOUR_RGB('',0.,0.,0.);
#229=COLOUR_RGB('',0.,0.,0.);
#230=COLOUR_RGB('',0.,0.,0.);
#231=STYLED_ITEM('Solid Colour',(#140),#468);
#232=MECHANICAL_DESIGN_GEOMETRIC_PRESENTATION_REPRESENTATION(
'Container for Styled_item',(#231,#134,#135,#136,#137,#138,#139,#98,#99,
#100,#101,#102,#103,#104,#105,#106,#107,#108,#109,#110,#111,#112,#113,#114,
#115,#116,#117,#118,#119,#120,#121,#122,#123,#124,#125,#126,#127,#128,#129,
#130,#131,#132,#133),#539);
#233=PRESENTATION_LAYER_ASSIGNMENT('APPLE','1',(#469,#468));
#234=CLOSED_SHELL('',(#457,#458,#459,#460,#461,#462,#463,#464,#465,#466,
#467));
#235=SPHERICAL_SURFACE('',#439,6.71999999999991);
#236=CONICAL_SURFACE('',#437,8.40000000000003,45.0000000000002);
#237=CYLINDRICAL_SURFACE('',#435,8.40000000000003);
#238=VECTOR('',#387,1.);
#239=VECTOR('',#388,1.);
#240=VECTOR('',#389,1.);
#241=VECTOR('',#390,1.);
#242=VECTOR('',#391,1.);
#243=VECTOR('',#392,1.);
#244=VECTOR('',#405,1.);
#245=VECTOR('',#406,1.);
#246=VECTOR('',#407,1.);
#247=VECTOR('',#410,1.);
#248=VECTOR('',#411,1.);
#249=VECTOR('',#412,1.);
#250=VECTOR('',#413,1.);
#251=VECTOR('',#414,1.);
#252=VECTOR('',#417,1.);
#253=VECTOR('',#420,1.);
#254=VECTOR('',#423,1.);
#255=VECTOR('',#426,1.);
#256=LINE('',#476,#238);
#257=LINE('',#478,#239);
#258=LINE('',#480,#240);
#259=LINE('',#482,#241);
#260=LINE('',#484,#242);
#261=LINE('',#485,#243);
#262=LINE('',#496,#244);
#263=LINE('',#497,#245);
#264=LINE('',#498,#246);
#265=LINE('',#501,#247);
#266=LINE('',#503,#248);
#267=LINE('',#505,#249);
#268=LINE('',#507,#250);
#269=LINE('',#508,#251);
#270=LINE('',#510,#252);
#271=LINE('',#512,#253);
#272=LINE('',#514,#254);
#273=LINE('',#516,#255);
#274=ORIENTED_EDGE('',*,*,#334,.F.);
#275=ORIENTED_EDGE('',*,*,#335,.F.);
#276=ORIENTED_EDGE('',*,*,#336,.F.);
#277=ORIENTED_EDGE('',*,*,#337,.F.);
#278=ORIENTED_EDGE('',*,*,#338,.F.);
#279=ORIENTED_EDGE('',*,*,#339,.F.);
#280=ORIENTED_EDGE('',*,*,#340,.F.);
#281=ORIENTED_EDGE('',*,*,#334,.T.);
#282=ORIENTED_EDGE('',*,*,#341,.F.);
#283=ORIENTED_EDGE('',*,*,#341,.T.);
#284=ORIENTED_EDGE('',*,*,#342,.F.);
#285=ORIENTED_EDGE('',*,*,#342,.T.);
#286=ORIENTED_EDGE('',*,*,#343,.F.);
#287=ORIENTED_EDGE('',*,*,#344,.T.);
#288=ORIENTED_EDGE('',*,*,#335,.T.);
#289=ORIENTED_EDGE('',*,*,#345,.F.);
#290=ORIENTED_EDGE('',*,*,#343,.T.);
#291=ORIENTED_EDGE('',*,*,#346,.T.);
#292=ORIENTED_EDGE('',*,*,#347,.T.);
#293=ORIENTED_EDGE('',*,*,#348,.T.);
#294=ORIENTED_EDGE('',*,*,#349,.T.);
#295=ORIENTED_EDGE('',*,*,#350,.T.);
#296=ORIENTED_EDGE('',*,*,#346,.F.);
#297=ORIENTED_EDGE('',*,*,#345,.T.);
#298=ORIENTED_EDGE('',*,*,#340,.T.);
#299=ORIENTED_EDGE('',*,*,#351,.F.);
#300=ORIENTED_EDGE('',*,*,#347,.F.);
#301=ORIENTED_EDGE('',*,*,#351,.T.);
#302=ORIENTED_EDGE('',*,*,#339,.T.);
#303=ORIENTED_EDGE('',*,*,#352,.F.);
#304=ORIENTED_EDGE('',*,*,#348,.F.);
#305=ORIENTED_EDGE('',*,*,#352,.T.);
#306=ORIENTED_EDGE('',*,*,#338,.T.);
#307=ORIENTED_EDGE('',*,*,#353,.F.);
#308=ORIENTED_EDGE('',*,*,#349,.F.);
#309=ORIENTED_EDGE('',*,*,#353,.T.);
#310=ORIENTED_EDGE('',*,*,#337,.T.);
#311=ORIENTED_EDGE('',*,*,#354,.F.);
#312=ORIENTED_EDGE('',*,*,#350,.F.);
#313=ORIENTED_EDGE('',*,*,#354,.T.);
#314=ORIENTED_EDGE('',*,*,#336,.T.);
#315=ORIENTED_EDGE('',*,*,#344,.F.);
#316=CIRCLE('',#434,8.40000000000003);
#317=CIRCLE('',#436,8.40000000000003);
#318=CIRCLE('',#438,5.89626344707921);
#319=VERTEX_POINT('',#472);
#320=VERTEX_POINT('',#474);
#321=VERTEX_POINT('',#475);
#322=VERTEX_POINT('',#477);
#323=VERTEX_POINT('',#479);
#324=VERTEX_POINT('',#481);
#325=VERTEX_POINT('',#483);
#326=VERTEX_POINT('',#487);
#327=VERTEX_POINT('',#490);
#328=VERTEX_POINT('',#494);
#329=VERTEX_POINT('',#495);
#330=VERTEX_POINT('',#500);
#331=VERTEX_POINT('',#502);
#332=VERTEX_POINT('',#504);
#333=VERTEX_POINT('',#506);
#334=EDGE_CURVE('',#319,#319,#316,.T.);
#335=EDGE_CURVE('',#320,#321,#256,.T.);
#336=EDGE_CURVE('',#322,#320,#257,.T.);
#337=EDGE_CURVE('',#323,#322,#258,.T.);
#338=EDGE_CURVE('',#324,#323,#259,.T.);
#339=EDGE_CURVE('',#325,#324,#260,.T.);
#340=EDGE_CURVE('',#321,#325,#261,.T.);
#341=EDGE_CURVE('',#326,#326,#317,.T.);
#342=EDGE_CURVE('',#327,#327,#318,.T.);
#343=EDGE_CURVE('',#328,#329,#262,.T.);
#344=EDGE_CURVE('',#328,#320,#263,.T.);
#345=EDGE_CURVE('',#329,#321,#264,.T.);
#346=EDGE_CURVE('',#329,#330,#265,.T.);
#347=EDGE_CURVE('',#330,#331,#266,.T.);
#348=EDGE_CURVE('',#331,#332,#267,.T.);
#349=EDGE_CURVE('',#332,#333,#268,.T.);
#350=EDGE_CURVE('',#333,#328,#269,.T.);
#351=EDGE_CURVE('',#330,#325,#270,.T.);
#352=EDGE_CURVE('',#331,#324,#271,.T.);
#353=EDGE_CURVE('',#332,#323,#272,.T.);
#354=EDGE_CURVE('',#333,#322,#273,.T.);
#355=EDGE_LOOP('',(#274));
#356=EDGE_LOOP('',(#275,#276,#277,#278,#279,#280));
#357=EDGE_LOOP('',(#281));
#358=EDGE_LOOP('',(#282));
#359=EDGE_LOOP('',(#283));
#360=EDGE_LOOP('',(#284));
#361=EDGE_LOOP('',(#285));
#362=EDGE_LOOP('',(#286,#287,#288,#289));
#363=EDGE_LOOP('',(#290,#291,#292,#293,#294,#295));
#364=EDGE_LOOP('',(#296,#297,#298,#299));
#365=EDGE_LOOP('',(#300,#301,#302,#303));
#366=EDGE_LOOP('',(#304,#305,#306,#307));
#367=EDGE_LOOP('',(#308,#309,#310,#311));
#368=EDGE_LOOP('',(#312,#313,#314,#315));
#369=FACE_BOUND('',#355,.T.);
#370=FACE_BOUND('',#356,.T.);
#371=FACE_BOUND('',#357,.T.);
#372=FACE_BOUND('',#358,.T.);
#373=FACE_BOUND('',#359,.T.);
#374=FACE_BOUND('',#360,.T.);
#375=FACE_BOUND('',#361,.T.);
#376=FACE_BOUND('',#362,.T.);
#377=FACE_BOUND('',#363,.T.);
#378=FACE_BOUND('',#364,.T.);
#379=FACE_BOUND('',#365,.T.);
#380=FACE_BOUND('',#366,.T.);
#381=FACE_BOUND('',#367,.T.);
#382=FACE_BOUND('',#368,.T.);
#383=DIRECTION('',(1.,-1.23259516440783E-032,6.12323399573676E-017));
#384=DIRECTION('',(-1.23259516440783E-032,-1.,0.));
#385=DIRECTION('',(-1.,-1.03590938929287E-031,-6.12323399573676E-017));
#386=DIRECTION('',(0.,8.40000000000003,-1.4210854715202E-014));
#387=DIRECTION('',(0.,-3.7527767497325,6.50000000000001));
#388=DIRECTION('',(0.,3.7527767497325,6.49999999999997));
#389=DIRECTION('',(0.,7.50555349946524,2.8421709430404E-014));
#390=DIRECTION('',(0.,3.75277674973245,-6.50000000000001));
#391=DIRECTION('',(0.,-3.75277674973245,-6.5));
#392=DIRECTION('',(0.,-7.50555349946524,0.));
#393=DIRECTION('',(-1.,0.,0.));
#394=DIRECTION('',(0.,1.,-1.69176841847642E-015));
#395=DIRECTION('',(-1.,-1.03590938929287E-031,-6.12323399573676E-017));
#396=DIRECTION('',(0.,8.40000000000003,-1.4210854715202E-014));
#397=DIRECTION('',(1.,0.,0.));
#398=DIRECTION('',(0.,1.,-1.69176841847642E-015));
#399=DIRECTION('',(-1.,-2.95157736697487E-031,-6.12323399573676E-017));
#400=DIRECTION('',(0.,5.89626344707921,-2.8421709430404E-014));
#401=DIRECTION('',(0.,0.,1.));
#402=DIRECTION('',(1.,0.,0.));
#403=DIRECTION('',(3.06161699786834E-017,-0.866025403784443,-0.499999999999993));
#404=DIRECTION('',(-0.866025403784443,-3.06161699786834E-017,0.));
#405=DIRECTION('',(0.,-3.7527767497325,6.50000000000001));
#406=DIRECTION('',(4.5,0.,0.));
#407=DIRECTION('',(4.5,0.,0.));
#408=DIRECTION('',(1.,-1.23259516440783E-032,6.12323399573676E-017));
#409=DIRECTION('',(-1.23259516440783E-032,-1.,0.));
#410=DIRECTION('',(0.,-7.50555349946524,0.));
#411=DIRECTION('',(0.,-3.7527767497325,-6.49999999999999));
#412=DIRECTION('',(0.,3.7527767497325,-6.50000000000003));
#413=DIRECTION('',(0.,7.50555349946524,2.8421709430404E-014));
#414=DIRECTION('',(0.,3.7527767497325,6.49999999999997));
#415=DIRECTION('',(6.12323399573677E-017,1.11022302462516E-016,-1.));
#416=DIRECTION('',(0.,1.,1.11022302462516E-016));
#417=DIRECTION('',(4.5,0.,0.));
#418=DIRECTION('',(3.06161699786834E-017,0.866025403784442,-0.499999999999994));
#419=DIRECTION('',(0.866025403784442,-3.06161699786834E-017,0.));
#420=DIRECTION('',(4.5,5.6843418860808E-014,-1.4210854715202E-014));
#421=DIRECTION('',(-3.06161699786834E-017,0.866025403784443,0.499999999999993));
#422=DIRECTION('',(0.866025403784443,3.06161699786834E-017,0.));
#423=DIRECTION('',(4.5,0.,0.));
#424=DIRECTION('',(-6.12323399573677E-017,-1.11022302462516E-016,1.));
#425=DIRECTION('',(0.,-1.,-1.11022302462516E-016));
#426=DIRECTION('',(4.5,0.,0.));
#427=DIRECTION('',(-3.06161699786834E-017,-0.866025403784442,0.499999999999994));
#428=DIRECTION('',(-0.866025403784442,3.06161699786834E-017,0.));
#429=DIRECTION('',(0.,0.,1.));
#430=DIRECTION('',(1.,0.,0.));
#431=DIRECTION('',(0.866025403784439,-0.499999999999999,0.));
#432=DIRECTION('',(0.,0.,-1.));
#433=AXIS2_PLACEMENT_3D('',#471,#383,#384);
#434=AXIS2_PLACEMENT_3D('',#473,#385,#386);
#435=AXIS2_PLACEMENT_3D('',#486,#393,#394);
#436=AXIS2_PLACEMENT_3D('',#488,#395,#396);
#437=AXIS2_PLACEMENT_3D('',#489,#397,#398);
#438=AXIS2_PLACEMENT_3D('',#491,#399,#400);
#439=AXIS2_PLACEMENT_3D('',#492,#401,#402);
#440=AXIS2_PLACEMENT_3D('',#493,#403,#404);
#441=AXIS2_PLACEMENT_3D('',#499,#408,#409);
#442=AXIS2_PLACEMENT_3D('',#509,#415,#416);
#443=AXIS2_PLACEMENT_3D('',#511,#418,#419);
#444=AXIS2_PLACEMENT_3D('',#513,#421,#422);
#445=AXIS2_PLACEMENT_3D('',#515,#424,#425);
#446=AXIS2_PLACEMENT_3D('',#517,#427,#428);
#447=AXIS2_PLACEMENT_3D('',#518,#429,#430);
#448=AXIS2_PLACEMENT_3D('',#519,#431,#432);
#449=PLANE('',#433);
#450=PLANE('',#440);
#451=PLANE('',#441);
#452=PLANE('',#442);
#453=PLANE('',#443);
#454=PLANE('',#444);
#455=PLANE('',#445);
#456=PLANE('',#446);
#457=ADVANCED_FACE('',(#369,#370),#449,.T.);
#458=ADVANCED_FACE('',(#371,#372),#237,.T.);
#459=ADVANCED_FACE('',(#373,#374),#236,.T.);
#460=ADVANCED_FACE('',(#375),#235,.T.);
#461=ADVANCED_FACE('',(#376),#450,.T.);
#462=ADVANCED_FACE('',(#377),#451,.T.);
#463=ADVANCED_FACE('',(#378),#452,.T.);
#464=ADVANCED_FACE('',(#379),#453,.T.);
#465=ADVANCED_FACE('',(#380),#454,.T.);
#466=ADVANCED_FACE('',(#381),#455,.T.);
#467=ADVANCED_FACE('',(#382),#456,.T.);
#468=MANIFOLD_SOLID_BREP('Solid',#234);
#469=GEOMETRIC_SET('Vertexshell',(#470));
#470=CARTESIAN_POINT('',(10.,0.,0.));
#471=CARTESIAN_POINT('',(7.5,0.,0.));
#472=CARTESIAN_POINT('',(7.5,8.40000000000003,-1.4210854715202E-014));
#473=CARTESIAN_POINT('',(7.5,0.,0.));
#474=CARTESIAN_POINT('',(7.5,7.50555349946512,-2.8421709430404E-014));
#475=CARTESIAN_POINT('',(7.5,3.75277674973262,6.49999999999999));
#476=CARTESIAN_POINT('',(7.5,7.50555349946512,-2.8421709430404E-014));
#477=CARTESIAN_POINT('',(7.5,3.75277674973262,-6.5));
#478=CARTESIAN_POINT('',(7.5,3.75277674973262,-6.5));
#479=CARTESIAN_POINT('',(7.5,-3.75277674973262,-6.50000000000003));
#480=CARTESIAN_POINT('',(7.5,-3.75277674973262,-6.50000000000003));
#481=CARTESIAN_POINT('',(7.5,-7.50555349946507,-1.4210854715202E-014));
#482=CARTESIAN_POINT('',(7.5,-7.50555349946507,-1.4210854715202E-014));
#483=CARTESIAN_POINT('',(7.5,-3.75277674973262,6.49999999999999));
#484=CARTESIAN_POINT('',(7.5,-3.75277674973262,6.49999999999999));
#485=CARTESIAN_POINT('',(7.5,3.75277674973262,6.49999999999999));
#486=CARTESIAN_POINT('',(7.5,0.,0.));
#487=CARTESIAN_POINT('',(-1.5,8.40000000000003,-1.4210854715202E-014));
#488=CARTESIAN_POINT('',(-1.5,0.,0.));
#489=CARTESIAN_POINT('',(-1.5,0.,0.));
#490=CARTESIAN_POINT('',(-4.00373655292077,5.89626344707921,-2.8421709430404E-014));
#491=CARTESIAN_POINT('',(-4.00373655292077,0.,0.));
#492=CARTESIAN_POINT('',(-0.780000000000143,0.,0.));
#493=CARTESIAN_POINT('',(7.5,7.50555349946512,-2.8421709430404E-014));
#494=CARTESIAN_POINT('',(3.,7.50555349946512,-2.8421709430404E-014));
#495=CARTESIAN_POINT('',(3.,3.75277674973262,6.49999999999999));
#496=CARTESIAN_POINT('',(3.,7.50555349946512,-2.8421709430404E-014));
#497=CARTESIAN_POINT('',(3.,7.50555349946512,-2.8421709430404E-014));
#498=CARTESIAN_POINT('',(3.,3.75277674973262,6.49999999999999));
#499=CARTESIAN_POINT('',(3.,-8.1059977794223,7.10044427995719));
#500=CARTESIAN_POINT('',(3.,-3.75277674973262,6.49999999999999));
#501=CARTESIAN_POINT('',(3.,3.75277674973262,6.49999999999999));
#502=CARTESIAN_POINT('',(3.,-7.50555349946512,0.));
#503=CARTESIAN_POINT('',(3.,-3.75277674973262,6.49999999999999));
#504=CARTESIAN_POINT('',(3.,-3.75277674973262,-6.50000000000003));
#505=CARTESIAN_POINT('',(3.,-7.50555349946512,0.));
#506=CARTESIAN_POINT('',(3.,3.75277674973262,-6.5));
#507=CARTESIAN_POINT('',(3.,-3.75277674973262,-6.50000000000003));
#508=CARTESIAN_POINT('',(3.,3.75277674973262,-6.5));
#509=CARTESIAN_POINT('',(7.5,3.75277674973262,6.49999999999999));
#510=CARTESIAN_POINT('',(3.,-3.75277674973262,6.49999999999999));
#511=CARTESIAN_POINT('',(7.5,-3.75277674973262,6.49999999999999));
#512=CARTESIAN_POINT('',(3.,-7.50555349946512,0.));
#513=CARTESIAN_POINT('',(7.5,-7.50555349946512,0.));
#514=CARTESIAN_POINT('',(3.,-3.75277674973262,-6.50000000000003));
#515=CARTESIAN_POINT('',(7.5,-3.75277674973262,-6.50000000000003));
#516=CARTESIAN_POINT('',(3.,3.75277674973262,-6.5));
#517=CARTESIAN_POINT('',(7.5,3.75277674973262,-6.5));
#518=CARTESIAN_POINT('',(0.,0.,0.));
#519=CARTESIAN_POINT('',(228.949175562839,227.173798003641,419.596198344817));
#520=SHAPE_REPRESENTATION('RootProduct',(#448),#539);
#521=SHAPE_REPRESENTATION('HiCADMultiBody',(#469,#468,#447),#540);
#522=PRODUCT_DEFINITION_SHAPE('','',#526);
#523=PRODUCT_DEFINITION_SHAPE('','',#527);
#524=PRODUCT_DEFINITION_SHAPE('',$,#13);
#525=PRODUCT_DEFINITION_CONTEXT('part definition',#531,'');
#526=PRODUCT_DEFINITION('','',#528,#525);
#527=PRODUCT_DEFINITION('','',#529,#525);
#528=PRODUCT_DEFINITION_FORMATION('','',#533);
#529=PRODUCT_DEFINITION_FORMATION('','',#534);
#530=APPLICATION_PROTOCOL_DEFINITION('international standard',
'automotive_design',2003,#531);
#531=APPLICATION_CONTEXT(
'Core Data for Automotive Mechanical Design Process');
#532=PRODUCT_CONTEXT('part definition',#531,'');
#533=PRODUCT('Root','Root','',(#532));
#534=PRODUCT('122005Afdekkap voor moer M8BOIKON',
'122005Afdekkap voor moer M8BOIKON','',(#532));
#535=SHAPE_DEFINITION_REPRESENTATION(#522,#520);
#536=SHAPE_DEFINITION_REPRESENTATION(#523,#521);
#537=PRODUCT_RELATED_PRODUCT_CATEGORY('','',(#533,#534));
#538=UNCERTAINTY_MEASURE_WITH_UNIT(LENGTH_MEASURE(0.001),#541,
'DISTANCE_ACCURACY_VALUE',
'Maximum model space distance between geometric entities at asserted co
nnectivities');
#539=(
GEOMETRIC_REPRESENTATION_CONTEXT(3)
GLOBAL_UNCERTAINTY_ASSIGNED_CONTEXT((#538))
GLOBAL_UNIT_ASSIGNED_CONTEXT((#541,#543,#546))
REPRESENTATION_CONTEXT('Default Context','3D')
);
#540=(
GEOMETRIC_REPRESENTATION_CONTEXT(3)
GLOBAL_UNCERTAINTY_ASSIGNED_CONTEXT((#538))
GLOBAL_UNIT_ASSIGNED_CONTEXT((#541,#543,#546))
REPRESENTATION_CONTEXT('Default Context','3D')
);
#541=(
LENGTH_UNIT()
NAMED_UNIT(*)
SI_UNIT(.MILLI.,.METRE.)
);
#542=DIMENSIONAL_EXPONENTS(0.,0.,0.,0.,0.,0.,0.);
#543=(
CONVERSION_BASED_UNIT('degree',#545)
NAMED_UNIT(#542)
PLANE_ANGLE_UNIT()
);
#544=(
NAMED_UNIT(*)
PLANE_ANGLE_UNIT()
SI_UNIT($,.RADIAN.)
);
#545=PLANE_ANGLE_MEASURE_WITH_UNIT(PLANE_ANGLE_MEASURE(0.01745329252),#544);
#546=(
NAMED_UNIT(*)
SI_UNIT($,.STERADIAN.)
SOLID_ANGLE_UNIT()
);
ENDSEC;
END-ISO-10303-21;
