ISO-10303-21;
HEADER;
/* Generated by software containing ST-Developer
 * from STEP Tools, Inc. (www.steptools.com) 
 */
/* OPTION: using custom schema-name function */

FILE_DESCRIPTION(
/* description */ (''),
/* implementation_level */ '2;1');

FILE_NAME(
/* name */ '122335',
/* time_stamp */ '2014-10-06T10:54:53+02:00',
/* author */ (''),
/* organization */ (''),
/* preprocessor_version */ 'ST-DEVELOPER v14',
/* originating_system */ 'HiCAD 2013 1802.4 Build 509',
/* authorisation */ '');

FILE_SCHEMA (('AUTOMOTIVE_DESIGN { 1 0 10303 214 1 1 1 1 }'));
ENDSEC;

DATA;
#10=ITEM_DEFINED_TRANSFORMATION('','',#499,#500);
#11=(
REPRESENTATION_RELATIONSHIP('','',#24,#523)
REPRESENTATION_RELATIONSHIP_WITH_TRANSFORMATION(#10)
SHAPE_REPRESENTATION_RELATIONSHIP()
);
#12=CONTEXT_DEPENDENT_SHAPE_REPRESENTATION(#11,#526);
#13=NEXT_ASSEMBLY_USAGE_OCCURRENCE(
'122335Sleufmoerprofiel 8 L= 1mBOIKON0',
'122335Sleufmoerprofiel 8 L= 1mBOIKON0','',#528,#529,$);
#14=PRESENTATION_STYLE_ASSIGNMENT((#15));
#15=SURFACE_STYLE_USAGE(.BOTH.,#16);
#16=SURFACE_SIDE_STYLE('',(#17));
#17=SURFACE_STYLE_FILL_AREA(#18);
#18=FILL_AREA_STYLE('',(#19));
#19=FILL_AREA_STYLE_COLOUR('',#20);
#20=COLOUR_RGB('',0.443136990070343,0.717647016048431,0.807843029499054);
#21=STYLED_ITEM('Solid Colour',(#14),#522);
#22=MECHANICAL_DESIGN_GEOMETRIC_PRESENTATION_REPRESENTATION(
'Container for Styled_item',(#21),#541);
#23=PRESENTATION_LAYER_ASSIGNMENT('APPLE','1',(#522));
#24=ADVANCED_BREP_SHAPE_REPRESENTATION('Body',(#522,#499),#542);
#25=CLOSED_SHELL('',(#506,#507,#508,#509,#510,#511,#512,#513,#514,#515,#516,
#517,#518,#519,#520,#521));
#26=PLANE('',#476);
#27=PLANE('',#486);
#28=PLANE('',#490);
#29=PLANE('',#491);
#30=PLANE('',#492);
#31=PLANE('',#493);
#32=PLANE('',#494);
#33=PLANE('',#495);
#34=PLANE('',#496);
#35=PLANE('',#497);
#36=PLANE('',#498);
#37=CIRCLE('',#474,0.5);
#38=CIRCLE('',#475,0.5);
#39=CIRCLE('',#478,2.00000000000077);
#40=CIRCLE('',#479,2.00000000000077);
#41=CIRCLE('',#481,4.99999999999975);
#42=CIRCLE('',#482,4.99999999999975);
#43=CIRCLE('',#484,2.00000000000105);
#44=CIRCLE('',#485,2.00000000000105);
#45=CIRCLE('',#488,0.50000000000036);
#46=CIRCLE('',#489,0.499999999999316);
#47=ORIENTED_EDGE('',*,*,#223,.T.);
#48=ORIENTED_EDGE('',*,*,#224,.F.);
#49=ORIENTED_EDGE('',*,*,#225,.F.);
#50=ORIENTED_EDGE('',*,*,#226,.T.);
#51=ORIENTED_EDGE('',*,*,#227,.T.);
#52=ORIENTED_EDGE('',*,*,#228,.F.);
#53=ORIENTED_EDGE('',*,*,#223,.F.);
#54=ORIENTED_EDGE('',*,*,#229,.T.);
#55=ORIENTED_EDGE('',*,*,#230,.T.);
#56=ORIENTED_EDGE('',*,*,#231,.F.);
#57=ORIENTED_EDGE('',*,*,#227,.F.);
#58=ORIENTED_EDGE('',*,*,#232,.T.);
#59=ORIENTED_EDGE('',*,*,#233,.T.);
#60=ORIENTED_EDGE('',*,*,#234,.F.);
#61=ORIENTED_EDGE('',*,*,#230,.F.);
#62=ORIENTED_EDGE('',*,*,#235,.T.);
#63=ORIENTED_EDGE('',*,*,#236,.T.);
#64=ORIENTED_EDGE('',*,*,#237,.F.);
#65=ORIENTED_EDGE('',*,*,#233,.F.);
#66=ORIENTED_EDGE('',*,*,#238,.T.);
#67=ORIENTED_EDGE('',*,*,#239,.T.);
#68=ORIENTED_EDGE('',*,*,#240,.F.);
#69=ORIENTED_EDGE('',*,*,#236,.F.);
#70=ORIENTED_EDGE('',*,*,#241,.T.);
#71=ORIENTED_EDGE('',*,*,#242,.T.);
#72=ORIENTED_EDGE('',*,*,#243,.F.);
#73=ORIENTED_EDGE('',*,*,#239,.F.);
#74=ORIENTED_EDGE('',*,*,#244,.T.);
#75=ORIENTED_EDGE('',*,*,#245,.T.);
#76=ORIENTED_EDGE('',*,*,#246,.F.);
#77=ORIENTED_EDGE('',*,*,#242,.F.);
#78=ORIENTED_EDGE('',*,*,#247,.T.);
#79=ORIENTED_EDGE('',*,*,#248,.T.);
#80=ORIENTED_EDGE('',*,*,#249,.F.);
#81=ORIENTED_EDGE('',*,*,#245,.F.);
#82=ORIENTED_EDGE('',*,*,#250,.T.);
#83=ORIENTED_EDGE('',*,*,#251,.T.);
#84=ORIENTED_EDGE('',*,*,#252,.F.);
#85=ORIENTED_EDGE('',*,*,#248,.F.);
#86=ORIENTED_EDGE('',*,*,#253,.T.);
#87=ORIENTED_EDGE('',*,*,#254,.T.);
#88=ORIENTED_EDGE('',*,*,#255,.F.);
#89=ORIENTED_EDGE('',*,*,#251,.F.);
#90=ORIENTED_EDGE('',*,*,#256,.T.);
#91=ORIENTED_EDGE('',*,*,#257,.T.);
#92=ORIENTED_EDGE('',*,*,#258,.F.);
#93=ORIENTED_EDGE('',*,*,#254,.F.);
#94=ORIENTED_EDGE('',*,*,#259,.T.);
#95=ORIENTED_EDGE('',*,*,#260,.T.);
#96=ORIENTED_EDGE('',*,*,#261,.F.);
#97=ORIENTED_EDGE('',*,*,#257,.F.);
#98=ORIENTED_EDGE('',*,*,#262,.T.);
#99=ORIENTED_EDGE('',*,*,#225,.T.);
#100=ORIENTED_EDGE('',*,*,#263,.F.);
#101=ORIENTED_EDGE('',*,*,#260,.F.);
#102=ORIENTED_EDGE('',*,*,#264,.T.);
#103=ORIENTED_EDGE('',*,*,#263,.T.);
#104=ORIENTED_EDGE('',*,*,#224,.T.);
#105=ORIENTED_EDGE('',*,*,#228,.T.);
#106=ORIENTED_EDGE('',*,*,#231,.T.);
#107=ORIENTED_EDGE('',*,*,#234,.T.);
#108=ORIENTED_EDGE('',*,*,#237,.T.);
#109=ORIENTED_EDGE('',*,*,#240,.T.);
#110=ORIENTED_EDGE('',*,*,#243,.T.);
#111=ORIENTED_EDGE('',*,*,#246,.T.);
#112=ORIENTED_EDGE('',*,*,#249,.T.);
#113=ORIENTED_EDGE('',*,*,#252,.T.);
#114=ORIENTED_EDGE('',*,*,#255,.T.);
#115=ORIENTED_EDGE('',*,*,#258,.T.);
#116=ORIENTED_EDGE('',*,*,#261,.T.);
#117=ORIENTED_EDGE('',*,*,#264,.F.);
#118=ORIENTED_EDGE('',*,*,#262,.F.);
#119=ORIENTED_EDGE('',*,*,#259,.F.);
#120=ORIENTED_EDGE('',*,*,#256,.F.);
#121=ORIENTED_EDGE('',*,*,#253,.F.);
#122=ORIENTED_EDGE('',*,*,#250,.F.);
#123=ORIENTED_EDGE('',*,*,#247,.F.);
#124=ORIENTED_EDGE('',*,*,#244,.F.);
#125=ORIENTED_EDGE('',*,*,#241,.F.);
#126=ORIENTED_EDGE('',*,*,#238,.F.);
#127=ORIENTED_EDGE('',*,*,#235,.F.);
#128=ORIENTED_EDGE('',*,*,#232,.F.);
#129=ORIENTED_EDGE('',*,*,#229,.F.);
#130=ORIENTED_EDGE('',*,*,#226,.F.);
#131=VECTOR('',#299,1.);
#132=VECTOR('',#302,1.);
#133=VECTOR('',#307,1.);
#134=VECTOR('',#308,1.);
#135=VECTOR('',#309,1.);
#136=VECTOR('',#312,1.);
#137=VECTOR('',#319,1.);
#138=VECTOR('',#326,1.);
#139=VECTOR('',#333,1.);
#140=VECTOR('',#334,1.);
#141=VECTOR('',#335,1.);
#142=VECTOR('',#338,1.);
#143=VECTOR('',#345,1.);
#144=VECTOR('',#346,1.);
#145=VECTOR('',#347,1.);
#146=VECTOR('',#350,1.);
#147=VECTOR('',#351,1.);
#148=VECTOR('',#352,1.);
#149=VECTOR('',#355,1.);
#150=VECTOR('',#356,1.);
#151=VECTOR('',#357,1.);
#152=VECTOR('',#360,1.);
#153=VECTOR('',#361,1.);
#154=VECTOR('',#362,1.);
#155=VECTOR('',#365,1.);
#156=VECTOR('',#366,1.);
#157=VECTOR('',#367,1.);
#158=VECTOR('',#370,1.);
#159=VECTOR('',#371,1.);
#160=VECTOR('',#372,1.);
#161=VECTOR('',#375,1.);
#162=VECTOR('',#376,1.);
#163=LINE('',#388,#131);
#164=LINE('',#392,#132);
#165=LINE('',#397,#133);
#166=LINE('',#398,#134);
#167=LINE('',#399,#135);
#168=LINE('',#403,#136);
#169=LINE('',#409,#137);
#170=LINE('',#415,#138);
#171=LINE('',#421,#139);
#172=LINE('',#422,#140);
#173=LINE('',#423,#141);
#174=LINE('',#427,#142);
#175=LINE('',#433,#143);
#176=LINE('',#434,#144);
#177=LINE('',#435,#145);
#178=LINE('',#439,#146);
#179=LINE('',#440,#147);
#180=LINE('',#441,#148);
#181=LINE('',#445,#149);
#182=LINE('',#446,#150);
#183=LINE('',#447,#151);
#184=LINE('',#451,#152);
#185=LINE('',#452,#153);
#186=LINE('',#453,#154);
#187=LINE('',#457,#155);
#188=LINE('',#458,#156);
#189=LINE('',#459,#157);
#190=LINE('',#463,#158);
#191=LINE('',#464,#159);
#192=LINE('',#465,#160);
#193=LINE('',#467,#161);
#194=LINE('',#468,#162);
#195=VERTEX_POINT('',#386);
#196=VERTEX_POINT('',#387);
#197=VERTEX_POINT('',#389);
#198=VERTEX_POINT('',#391);
#199=VERTEX_POINT('',#395);
#200=VERTEX_POINT('',#396);
#201=VERTEX_POINT('',#401);
#202=VERTEX_POINT('',#402);
#203=VERTEX_POINT('',#407);
#204=VERTEX_POINT('',#408);
#205=VERTEX_POINT('',#413);
#206=VERTEX_POINT('',#414);
#207=VERTEX_POINT('',#419);
#208=VERTEX_POINT('',#420);
#209=VERTEX_POINT('',#425);
#210=VERTEX_POINT('',#426);
#211=VERTEX_POINT('',#431);
#212=VERTEX_POINT('',#432);
#213=VERTEX_POINT('',#437);
#214=VERTEX_POINT('',#438);
#215=VERTEX_POINT('',#443);
#216=VERTEX_POINT('',#444);
#217=VERTEX_POINT('',#449);
#218=VERTEX_POINT('',#450);
#219=VERTEX_POINT('',#455);
#220=VERTEX_POINT('',#456);
#221=VERTEX_POINT('',#461);
#222=VERTEX_POINT('',#462);
#223=EDGE_CURVE('',#195,#196,#163,.T.);
#224=EDGE_CURVE('',#197,#196,#37,.T.);
#225=EDGE_CURVE('',#198,#197,#164,.T.);
#226=EDGE_CURVE('',#198,#195,#38,.T.);
#227=EDGE_CURVE('',#199,#200,#165,.T.);
#228=EDGE_CURVE('',#196,#200,#166,.T.);
#229=EDGE_CURVE('',#195,#199,#167,.T.);
#230=EDGE_CURVE('',#201,#202,#168,.T.);
#231=EDGE_CURVE('',#200,#202,#39,.T.);
#232=EDGE_CURVE('',#199,#201,#40,.T.);
#233=EDGE_CURVE('',#203,#204,#169,.T.);
#234=EDGE_CURVE('',#202,#204,#41,.T.);
#235=EDGE_CURVE('',#201,#203,#42,.T.);
#236=EDGE_CURVE('',#205,#206,#170,.T.);
#237=EDGE_CURVE('',#204,#206,#43,.T.);
#238=EDGE_CURVE('',#203,#205,#44,.T.);
#239=EDGE_CURVE('',#207,#208,#171,.T.);
#240=EDGE_CURVE('',#206,#208,#172,.T.);
#241=EDGE_CURVE('',#205,#207,#173,.T.);
#242=EDGE_CURVE('',#209,#210,#174,.T.);
#243=EDGE_CURVE('',#208,#210,#45,.T.);
#244=EDGE_CURVE('',#207,#209,#46,.T.);
#245=EDGE_CURVE('',#211,#212,#175,.T.);
#246=EDGE_CURVE('',#210,#212,#176,.T.);
#247=EDGE_CURVE('',#209,#211,#177,.T.);
#248=EDGE_CURVE('',#213,#214,#178,.T.);
#249=EDGE_CURVE('',#212,#214,#179,.T.);
#250=EDGE_CURVE('',#211,#213,#180,.T.);
#251=EDGE_CURVE('',#215,#216,#181,.T.);
#252=EDGE_CURVE('',#214,#216,#182,.T.);
#253=EDGE_CURVE('',#213,#215,#183,.T.);
#254=EDGE_CURVE('',#217,#218,#184,.T.);
#255=EDGE_CURVE('',#216,#218,#185,.T.);
#256=EDGE_CURVE('',#215,#217,#186,.T.);
#257=EDGE_CURVE('',#219,#220,#187,.T.);
#258=EDGE_CURVE('',#218,#220,#188,.T.);
#259=EDGE_CURVE('',#217,#219,#189,.T.);
#260=EDGE_CURVE('',#221,#222,#190,.T.);
#261=EDGE_CURVE('',#220,#222,#191,.T.);
#262=EDGE_CURVE('',#219,#221,#192,.T.);
#263=EDGE_CURVE('',#222,#197,#193,.T.);
#264=EDGE_CURVE('',#221,#198,#194,.T.);
#265=EDGE_LOOP('',(#47,#48,#49,#50));
#266=EDGE_LOOP('',(#51,#52,#53,#54));
#267=EDGE_LOOP('',(#55,#56,#57,#58));
#268=EDGE_LOOP('',(#59,#60,#61,#62));
#269=EDGE_LOOP('',(#63,#64,#65,#66));
#270=EDGE_LOOP('',(#67,#68,#69,#70));
#271=EDGE_LOOP('',(#71,#72,#73,#74));
#272=EDGE_LOOP('',(#75,#76,#77,#78));
#273=EDGE_LOOP('',(#79,#80,#81,#82));
#274=EDGE_LOOP('',(#83,#84,#85,#86));
#275=EDGE_LOOP('',(#87,#88,#89,#90));
#276=EDGE_LOOP('',(#91,#92,#93,#94));
#277=EDGE_LOOP('',(#95,#96,#97,#98));
#278=EDGE_LOOP('',(#99,#100,#101,#102));
#279=EDGE_LOOP('',(#103,#104,#105,#106,#107,#108,#109,#110,#111,#112,#113,
#114,#115,#116));
#280=EDGE_LOOP('',(#117,#118,#119,#120,#121,#122,#123,#124,#125,#126,#127,
#128,#129,#130));
#281=FACE_BOUND('',#265,.T.);
#282=FACE_BOUND('',#266,.T.);
#283=FACE_BOUND('',#267,.T.);
#284=FACE_BOUND('',#268,.T.);
#285=FACE_BOUND('',#269,.T.);
#286=FACE_BOUND('',#270,.T.);
#287=FACE_BOUND('',#271,.T.);
#288=FACE_BOUND('',#272,.T.);
#289=FACE_BOUND('',#273,.T.);
#290=FACE_BOUND('',#274,.T.);
#291=FACE_BOUND('',#275,.T.);
#292=FACE_BOUND('',#276,.T.);
#293=FACE_BOUND('',#277,.T.);
#294=FACE_BOUND('',#278,.T.);
#295=FACE_BOUND('',#279,.T.);
#296=FACE_BOUND('',#280,.T.);
#297=DIRECTION('',(-1.,0.,0.));
#298=DIRECTION('',(0.,0.,-1.));
#299=DIRECTION('',(-999.999999999999,-1.81898940354586E-012,0.));
#300=DIRECTION('',(-1.,0.,0.));
#301=DIRECTION('',(0.,0.,-0.5));
#302=DIRECTION('',(-999.999999999999,0.,0.));
#303=DIRECTION('',(-1.,0.,0.));
#304=DIRECTION('',(0.,0.,-0.5));
#305=DIRECTION('',(5.55111512312578E-017,-0.573576436351047,-0.819152044288991));
#306=DIRECTION('',(0.,0.819152044288991,-0.573576436351047));
#307=DIRECTION('',(-999.999999999999,0.,0.));
#308=DIRECTION('',(0.,-4.57368966782451,3.20253198284263));
#309=DIRECTION('',(0.,-4.57368966782633,3.20253198284263));
#310=DIRECTION('',(-1.,0.,0.));
#311=DIRECTION('',(0.,-0.573576436351466,-0.819152044288698));
#312=DIRECTION('',(-999.999999999999,0.,0.));
#313=DIRECTION('',(-1.,-2.17347579930679E-018,1.52188413879265E-018));
#314=DIRECTION('',(0.,-1.14715287270337,-1.63830408857802));
#315=DIRECTION('',(-1.,-3.26062190960028E-014,-4.65618808800329E-014));
#316=DIRECTION('',(1.13686837721616E-013,-1.14715287270337,-1.63830408857802));
#317=DIRECTION('',(-1.,0.,0.));
#318=DIRECTION('',(0.,-0.852385865087169,-0.522913316907878));
#319=DIRECTION('',(-999.999999999999,0.,0.));
#320=DIRECTION('',(-1.,-2.06188732753374E-018,3.36102286280412E-018));
#321=DIRECTION('',(0.,-4.26192932543563,-2.61456658453926));
#322=DIRECTION('',(-1.,-1.93830725914013E-014,-1.18863112574934E-014));
#323=DIRECTION('',(1.13686837721616E-013,-4.26192932543563,-2.61456658453926));
#324=DIRECTION('',(-1.,0.,0.));
#325=DIRECTION('',(0.,-0.852385865087408,0.522913316907488));
#326=DIRECTION('',(-999.999999999999,0.,4.54747350886464E-013));
#327=DIRECTION('',(-1.,2.06188732753278E-018,3.36102286280601E-018));
#328=DIRECTION('',(0.,-1.70477173017571,1.04582663381552));
#329=DIRECTION('',(-1.,2.06188732753278E-018,3.36102286280601E-018));
#330=DIRECTION('',(0.,-1.70477173017571,1.04582663381552));
#331=DIRECTION('',(2.77555756156289E-017,-0.573576436351047,0.819152044288991));
#332=DIRECTION('',(0.,-0.819152044288991,-0.573576436351047));
#333=DIRECTION('',(-999.999999999999,-1.81898940354586E-012,0.));
#334=DIRECTION('',(0.,4.57368966782451,3.20253198284263));
#335=DIRECTION('',(0.,4.57368966782633,3.20253198284308));
#336=DIRECTION('',(-1.,0.,0.));
#337=DIRECTION('',(0.,-0.573576436349742,0.819152044289905));
#338=DIRECTION('',(-999.999999999999,0.,0.));
#339=DIRECTION('',(-1.,2.17347579930818E-018,1.52188413879646E-018));
#340=DIRECTION('',(0.,-0.286788218176298,0.409576022144392));
#341=DIRECTION('',(-1.,2.17347579930346E-018,1.5218841387835E-018));
#342=DIRECTION('',(0.,-0.286788218174479,0.409576022144392));
#343=DIRECTION('',(-6.41654724417896E-017,-3.27745875749472E-018,1.));
#344=DIRECTION('',(0.,-1.,-3.27745875749472E-018));
#345=DIRECTION('',(-999.999999999999,0.,0.));
#346=DIRECTION('',(0.,0.343832581962488,0.));
#347=DIRECTION('',(1.13686837721616E-013,0.343832581962488,0.));
#348=DIRECTION('',(0.,1.,1.30841038223648E-017));
#349=DIRECTION('',(1.,0.,0.));
#350=DIRECTION('',(-999.999999999999,0.,0.));
#351=DIRECTION('',(0.,0.,-2.55000000000018));
#352=DIRECTION('',(-1.13686837721616E-013,0.,-2.55000000000018));
#353=DIRECTION('',(-6.41654724417896E-017,-3.27745875749472E-018,1.));
#354=DIRECTION('',(0.,-1.,-3.27745875749472E-018));
#355=DIRECTION('',(-999.999999999999,0.,0.));
#356=DIRECTION('',(0.,0.5,0.));
#357=DIRECTION('',(1.13686837721616E-013,0.5,0.));
#358=DIRECTION('',(0.,1.,1.30841038223648E-017));
#359=DIRECTION('',(1.,0.,0.));
#360=DIRECTION('',(-999.999999999999,0.,0.));
#361=DIRECTION('',(0.,0.,-7.89999999999964));
#362=DIRECTION('',(0.,0.,-7.89999999999964));
#363=DIRECTION('',(6.41654724417896E-017,3.27745875749472E-018,-1.));
#364=DIRECTION('',(0.,1.,3.27745875749472E-018));
#365=DIRECTION('',(-999.999999999999,0.,0.));
#366=DIRECTION('',(0.,-0.5,0.));
#367=DIRECTION('',(0.,-0.5,0.));
#368=DIRECTION('',(0.,1.,1.30841038223648E-017));
#369=DIRECTION('',(1.,0.,0.));
#370=DIRECTION('',(-999.999999999999,0.,0.));
#371=DIRECTION('',(0.,0.,-2.55000000000018));
#372=DIRECTION('',(0.,0.,-2.55000000000018));
#373=DIRECTION('',(6.41654724417896E-017,3.27745875749472E-018,-1.));
#374=DIRECTION('',(0.,1.,3.27745875749472E-018));
#375=DIRECTION('',(0.,-0.343832581962488,0.));
#376=DIRECTION('',(-1.13686837721616E-013,-0.343832581962488,0.));
#377=DIRECTION('',(-1.,0.,4.62592926927148E-018));
#378=DIRECTION('',(0.,1.,0.));
#379=DIRECTION('',(1.,0.,-4.62592926927148E-018));
#380=DIRECTION('',(0.,-1.,0.));
#381=DIRECTION('',(0.,0.,1.));
#382=DIRECTION('',(1.,0.,0.));
#383=DIRECTION('',(1.,0.,0.));
#384=DIRECTION('',(0.,0.,-1.));
#385=CARTESIAN_POINT('',(999.999999999999,-5.04383258196322,-6.));
#386=CARTESIAN_POINT('',(999.999999999999,-5.33062080013769,-6.40957602214439));
#387=CARTESIAN_POINT('',(0.,-5.33062080013951,-6.40957602214439));
#388=CARTESIAN_POINT('',(999.999999999999,-5.33062080013769,-6.40957602214439));
#389=CARTESIAN_POINT('',(0.,-5.04383258196322,-6.5));
#390=CARTESIAN_POINT('',(0.,-5.04383258196322,-6.));
#391=CARTESIAN_POINT('',(999.999999999999,-5.04383258196322,-6.5));
#392=CARTESIAN_POINT('',(999.999999999999,-5.04383258196322,-6.5));
#393=CARTESIAN_POINT('',(999.999999999999,-5.04383258196322,-6.));
#394=CARTESIAN_POINT('',(999.999999999999,-9.90431046796402,-3.20704403930176));
#395=CARTESIAN_POINT('',(999.999999999999,-9.90431046796402,-3.20704403930176));
#396=CARTESIAN_POINT('',(0.,-9.90431046796402,-3.20704403930176));
#397=CARTESIAN_POINT('',(999.999999999999,-9.90431046796402,-3.20704403930176));
#398=CARTESIAN_POINT('',(0.,-5.33062080013951,-6.40957602214439));
#399=CARTESIAN_POINT('',(999.999999999999,-5.33062080013769,-6.40957602214439));
#400=CARTESIAN_POINT('',(999.999999999999,-8.75715759526065,-1.56873995072374));
#401=CARTESIAN_POINT('',(999.999999999999,-10.4619293254364,-2.61456658453926));
#402=CARTESIAN_POINT('',(0.,-10.4619293254364,-2.61456658453926));
#403=CARTESIAN_POINT('',(999.999999999999,-10.4619293254364,-2.61456658453926));
#404=CARTESIAN_POINT('',(0.,-8.75715759526065,-1.56873995072374));
#405=CARTESIAN_POINT('',(999.999999999999,-8.75715759526065,-1.56873995072374));
#406=CARTESIAN_POINT('',(999.999999999999,-6.20000000000073,0.));
#407=CARTESIAN_POINT('',(999.999999999999,-10.4619293254364,2.61456658453926));
#408=CARTESIAN_POINT('',(0.,-10.4619293254364,2.61456658453926));
#409=CARTESIAN_POINT('',(999.999999999999,-10.4619293254364,2.61456658453926));
#410=CARTESIAN_POINT('',(0.,-6.20000000000073,0.));
#411=CARTESIAN_POINT('',(999.999999999999,-6.20000000000073,0.));
#412=CARTESIAN_POINT('',(999.999999999999,-8.75715759526065,1.56873995072374));
#413=CARTESIAN_POINT('',(999.999999999999,-9.90431046796402,3.20704403930131));
#414=CARTESIAN_POINT('',(0.,-9.90431046796402,3.20704403930176));
#415=CARTESIAN_POINT('',(999.999999999999,-9.90431046796402,3.20704403930131));
#416=CARTESIAN_POINT('',(0.,-8.75715759526065,1.56873995072374));
#417=CARTESIAN_POINT('',(999.999999999999,-8.75715759526065,1.56873995072374));
#418=CARTESIAN_POINT('',(999.999999999999,-5.33062080013769,6.40957602214439));
#419=CARTESIAN_POINT('',(999.999999999999,-5.33062080013769,6.40957602214439));
#420=CARTESIAN_POINT('',(0.,-5.33062080013951,6.40957602214439));
#421=CARTESIAN_POINT('',(999.999999999999,-5.33062080013769,6.40957602214439));
#422=CARTESIAN_POINT('',(0.,-9.90431046796402,3.20704403930176));
#423=CARTESIAN_POINT('',(999.999999999999,-9.90431046796402,3.20704403930131));
#424=CARTESIAN_POINT('',(999.999999999999,-5.04383258196322,6.));
#425=CARTESIAN_POINT('',(999.999999999999,-5.04383258196322,6.5));
#426=CARTESIAN_POINT('',(0.,-5.04383258196322,6.5));
#427=CARTESIAN_POINT('',(999.999999999999,-5.04383258196322,6.5));
#428=CARTESIAN_POINT('',(0.,-5.04383258196322,6.));
#429=CARTESIAN_POINT('',(999.999999999999,-5.04383258196322,6.));
#430=CARTESIAN_POINT('',(999.999999999999,-4.70000000000073,6.5));
#431=CARTESIAN_POINT('',(999.999999999999,-4.70000000000073,6.5));
#432=CARTESIAN_POINT('',(0.,-4.70000000000073,6.5));
#433=CARTESIAN_POINT('',(999.999999999999,-4.70000000000073,6.5));
#434=CARTESIAN_POINT('',(0.,-5.04383258196322,6.5));
#435=CARTESIAN_POINT('',(999.999999999999,-5.04383258196322,6.5));
#436=CARTESIAN_POINT('',(999.999999999999,-4.70000000000073,3.94999999999982));
#437=CARTESIAN_POINT('',(999.999999999999,-4.70000000000073,3.94999999999982));
#438=CARTESIAN_POINT('',(0.,-4.70000000000073,3.94999999999982));
#439=CARTESIAN_POINT('',(999.999999999999,-4.70000000000073,3.94999999999982));
#440=CARTESIAN_POINT('',(0.,-4.70000000000073,6.5));
#441=CARTESIAN_POINT('',(999.999999999999,-4.70000000000073,6.5));
#442=CARTESIAN_POINT('',(999.999999999999,-4.20000000000073,3.94999999999982));
#443=CARTESIAN_POINT('',(999.999999999999,-4.20000000000073,3.94999999999982));
#444=CARTESIAN_POINT('',(0.,-4.20000000000073,3.94999999999982));
#445=CARTESIAN_POINT('',(999.999999999999,-4.20000000000073,3.94999999999982));
#446=CARTESIAN_POINT('',(0.,-4.70000000000073,3.94999999999982));
#447=CARTESIAN_POINT('',(999.999999999999,-4.70000000000073,3.94999999999982));
#448=CARTESIAN_POINT('',(999.999999999999,-4.20000000000073,-3.94999999999982));
#449=CARTESIAN_POINT('',(999.999999999999,-4.20000000000073,-3.94999999999982));
#450=CARTESIAN_POINT('',(0.,-4.20000000000073,-3.94999999999982));
#451=CARTESIAN_POINT('',(999.999999999999,-4.20000000000073,-3.94999999999982));
#452=CARTESIAN_POINT('',(0.,-4.20000000000073,3.94999999999982));
#453=CARTESIAN_POINT('',(999.999999999999,-4.20000000000073,3.94999999999982));
#454=CARTESIAN_POINT('',(999.999999999999,-4.70000000000073,-3.94999999999982));
#455=CARTESIAN_POINT('',(999.999999999999,-4.70000000000073,-3.94999999999982));
#456=CARTESIAN_POINT('',(0.,-4.70000000000073,-3.94999999999982));
#457=CARTESIAN_POINT('',(999.999999999999,-4.70000000000073,-3.94999999999982));
#458=CARTESIAN_POINT('',(0.,-4.20000000000073,-3.94999999999982));
#459=CARTESIAN_POINT('',(999.999999999999,-4.20000000000073,-3.94999999999982));
#460=CARTESIAN_POINT('',(999.999999999999,-4.70000000000073,-6.5));
#461=CARTESIAN_POINT('',(999.999999999999,-4.70000000000073,-6.5));
#462=CARTESIAN_POINT('',(0.,-4.70000000000073,-6.5));
#463=CARTESIAN_POINT('',(999.999999999999,-4.70000000000073,-6.5));
#464=CARTESIAN_POINT('',(0.,-4.70000000000073,-3.94999999999982));
#465=CARTESIAN_POINT('',(999.999999999999,-4.70000000000073,-3.94999999999982));
#466=CARTESIAN_POINT('',(999.999999999999,-5.04383258196322,-6.5));
#467=CARTESIAN_POINT('',(0.,-4.70000000000073,-6.5));
#468=CARTESIAN_POINT('',(999.999999999999,-4.70000000000073,-6.5));
#469=CARTESIAN_POINT('',(0.,-4.70000000000073,-6.5));
#470=CARTESIAN_POINT('',(999.999999999999,-5.04383258196322,-6.5));
#471=CARTESIAN_POINT('',(0.,0.,0.));
#472=CARTESIAN_POINT('',(-3378.23342847568,8462.87366815823,1000.));
#473=AXIS2_PLACEMENT_3D('',#385,#297,#298);
#474=AXIS2_PLACEMENT_3D('',#390,#300,#301);
#475=AXIS2_PLACEMENT_3D('',#393,#303,#304);
#476=AXIS2_PLACEMENT_3D('',#394,#305,#306);
#477=AXIS2_PLACEMENT_3D('',#400,#310,#311);
#478=AXIS2_PLACEMENT_3D('',#404,#313,#314);
#479=AXIS2_PLACEMENT_3D('',#405,#315,#316);
#480=AXIS2_PLACEMENT_3D('',#406,#317,#318);
#481=AXIS2_PLACEMENT_3D('',#410,#320,#321);
#482=AXIS2_PLACEMENT_3D('',#411,#322,#323);
#483=AXIS2_PLACEMENT_3D('',#412,#324,#325);
#484=AXIS2_PLACEMENT_3D('',#416,#327,#328);
#485=AXIS2_PLACEMENT_3D('',#417,#329,#330);
#486=AXIS2_PLACEMENT_3D('',#418,#331,#332);
#487=AXIS2_PLACEMENT_3D('',#424,#336,#337);
#488=AXIS2_PLACEMENT_3D('',#428,#339,#340);
#489=AXIS2_PLACEMENT_3D('',#429,#341,#342);
#490=AXIS2_PLACEMENT_3D('',#430,#343,#344);
#491=AXIS2_PLACEMENT_3D('',#436,#348,#349);
#492=AXIS2_PLACEMENT_3D('',#442,#353,#354);
#493=AXIS2_PLACEMENT_3D('',#448,#358,#359);
#494=AXIS2_PLACEMENT_3D('',#454,#363,#364);
#495=AXIS2_PLACEMENT_3D('',#460,#368,#369);
#496=AXIS2_PLACEMENT_3D('',#466,#373,#374);
#497=AXIS2_PLACEMENT_3D('',#469,#377,#378);
#498=AXIS2_PLACEMENT_3D('',#470,#379,#380);
#499=AXIS2_PLACEMENT_3D('',#471,#381,#382);
#500=AXIS2_PLACEMENT_3D('',#472,#383,#384);
#501=CYLINDRICAL_SURFACE('',#473,0.5);
#502=CYLINDRICAL_SURFACE('',#477,2.00000000000077);
#503=CYLINDRICAL_SURFACE('',#480,4.99999999999975);
#504=CYLINDRICAL_SURFACE('',#483,2.00000000000105);
#505=CYLINDRICAL_SURFACE('',#487,0.499999999999316);
#506=ADVANCED_FACE('',(#281),#501,.T.);
#507=ADVANCED_FACE('',(#282),#26,.T.);
#508=ADVANCED_FACE('',(#283),#502,.T.);
#509=ADVANCED_FACE('',(#284),#503,.T.);
#510=ADVANCED_FACE('',(#285),#504,.T.);
#511=ADVANCED_FACE('',(#286),#27,.T.);
#512=ADVANCED_FACE('',(#287),#505,.T.);
#513=ADVANCED_FACE('',(#288),#28,.T.);
#514=ADVANCED_FACE('',(#289),#29,.T.);
#515=ADVANCED_FACE('',(#290),#30,.T.);
#516=ADVANCED_FACE('',(#291),#31,.T.);
#517=ADVANCED_FACE('',(#292),#32,.T.);
#518=ADVANCED_FACE('',(#293),#33,.T.);
#519=ADVANCED_FACE('',(#294),#34,.T.);
#520=ADVANCED_FACE('',(#295),#35,.T.);
#521=ADVANCED_FACE('',(#296),#36,.T.);
#522=MANIFOLD_SOLID_BREP('Solid',#25);
#523=SHAPE_REPRESENTATION('RootProduct',(#500),#541);
#524=PRODUCT_DEFINITION_SHAPE('','',#528);
#525=PRODUCT_DEFINITION_SHAPE('','',#529);
#526=PRODUCT_DEFINITION_SHAPE('',$,#13);
#527=PRODUCT_DEFINITION_CONTEXT('part definition',#533,'');
#528=PRODUCT_DEFINITION('','',#530,#527);
#529=PRODUCT_DEFINITION('','',#531,#527);
#530=PRODUCT_DEFINITION_FORMATION('','',#535);
#531=PRODUCT_DEFINITION_FORMATION('','',#536);
#532=APPLICATION_PROTOCOL_DEFINITION('international standard',
'automotive_design',2003,#533);
#533=APPLICATION_CONTEXT(
'Core Data for Automotive Mechanical Design Process');
#534=PRODUCT_CONTEXT('part definition',#533,'');
#535=PRODUCT('Root','Root','',(#534));
#536=PRODUCT('122335Sleufmoerprofiel 8 L= 1mBOIKON0',
'122335Sleufmoerprofiel 8 L= 1mBOIKON0','',(#534));
#537=SHAPE_DEFINITION_REPRESENTATION(#524,#523);
#538=SHAPE_DEFINITION_REPRESENTATION(#525,#24);
#539=PRODUCT_RELATED_PRODUCT_CATEGORY('','',(#535,#536));
#540=UNCERTAINTY_MEASURE_WITH_UNIT(LENGTH_MEASURE(0.001),#543,
'DISTANCE_ACCURACY_VALUE',
'Maximum model space distance between geometric entities at asserted co
nnectivities');
#541=(
GEOMETRIC_REPRESENTATION_CONTEXT(3)
GLOBAL_UNCERTAINTY_ASSIGNED_CONTEXT((#540))
GLOBAL_UNIT_ASSIGNED_CONTEXT((#543,#545,#548))
REPRESENTATION_CONTEXT('Default Context','3D')
);
#542=(
GEOMETRIC_REPRESENTATION_CONTEXT(3)
GLOBAL_UNCERTAINTY_ASSIGNED_CONTEXT((#540))
GLOBAL_UNIT_ASSIGNED_CONTEXT((#543,#545,#548))
REPRESENTATION_CONTEXT('Default Context','3D')
);
#543=(
LENGTH_UNIT()
NAMED_UNIT(*)
SI_UNIT(.MILLI.,.METRE.)
);
#544=DIMENSIONAL_EXPONENTS(0.,0.,0.,0.,0.,0.,0.);
#545=(
CONVERSION_BASED_UNIT('degree',#547)
NAMED_UNIT(#544)
PLANE_ANGLE_UNIT()
);
#546=(
NAMED_UNIT(*)
PLANE_ANGLE_UNIT()
SI_UNIT($,.RADIAN.)
);
#547=PLANE_ANGLE_MEASURE_WITH_UNIT(PLANE_ANGLE_MEASURE(0.01745329252),#546);
#548=(
NAMED_UNIT(*)
SI_UNIT($,.STERADIAN.)
SOLID_ANGLE_UNIT()
);
ENDSEC;
END-ISO-10303-21;
