ISO-10303-21;
HEADER;
/* Generated by software containing ST-Developer
 * from STEP Tools, Inc. (www.steptools.com) 
 */
/* OPTION: using custom schema-name function */

FILE_DESCRIPTION(
/* description */ (''),
/* implementation_level */ '2;1');

FILE_NAME(
/* name */ '122355',
/* time_stamp */ '2014-10-06T10:55:19+02:00',
/* author */ (''),
/* organization */ (''),
/* preprocessor_version */ 'ST-DEVELOPER v14',
/* originating_system */ 'HiCAD 2013 1802.4 Build 509',
/* authorisation */ '');

FILE_SCHEMA (('AUTOMOTIVE_DESIGN { 1 0 10303 214 1 1 1 1 }'));
ENDSEC;

DATA;
#10=ITEM_DEFINED_TRANSFORMATION('','',#357,#358);
#11=(
REPRESENTATION_RELATIONSHIP('','',#24,#383)
REPRESENTATION_RELATIONSHIP_WITH_TRANSFORMATION(#10)
SHAPE_REPRESENTATION_RELATIONSHIP()
);
#12=CONTEXT_DEPENDENT_SHAPE_REPRESENTATION(#11,#386);
#13=NEXT_ASSEMBLY_USAGE_OCCURRENCE(
'122355Sleufmoerprofiel 10 L= 1mBOIKON0',
'122355Sleufmoerprofiel 10 L= 1mBOIKON0','',#388,#389,$);
#14=PRESENTATION_STYLE_ASSIGNMENT((#15));
#15=SURFACE_STYLE_USAGE(.BOTH.,#16);
#16=SURFACE_SIDE_STYLE('',(#17));
#17=SURFACE_STYLE_FILL_AREA(#18);
#18=FILL_AREA_STYLE('',(#19));
#19=FILL_AREA_STYLE_COLOUR('',#20);
#20=COLOUR_RGB('',0.443136990070343,0.717647016048431,0.807843029499054);
#21=STYLED_ITEM('Solid Colour',(#14),#382);
#22=MECHANICAL_DESIGN_GEOMETRIC_PRESENTATION_REPRESENTATION(
'Container for Styled_item',(#21),#401);
#23=PRESENTATION_LAYER_ASSIGNMENT('APPLE','1',(#382));
#24=ADVANCED_BREP_SHAPE_REPRESENTATION('Body',(#382,#357),#402);
#25=CLOSED_SHELL('',(#370,#371,#372,#373,#374,#375,#376,#377,#378,#379,#380,
#381));
#26=CIRCLE('',#352,8.00000000000024);
#27=CIRCLE('',#353,8.00000000000024);
#28=CYLINDRICAL_SURFACE('',#351,8.00000000000024);
#29=ORIENTED_EDGE('',*,*,#165,.T.);
#30=ORIENTED_EDGE('',*,*,#166,.F.);
#31=ORIENTED_EDGE('',*,*,#167,.F.);
#32=ORIENTED_EDGE('',*,*,#168,.T.);
#33=ORIENTED_EDGE('',*,*,#169,.T.);
#34=ORIENTED_EDGE('',*,*,#170,.F.);
#35=ORIENTED_EDGE('',*,*,#165,.F.);
#36=ORIENTED_EDGE('',*,*,#171,.T.);
#37=ORIENTED_EDGE('',*,*,#172,.T.);
#38=ORIENTED_EDGE('',*,*,#173,.F.);
#39=ORIENTED_EDGE('',*,*,#169,.F.);
#40=ORIENTED_EDGE('',*,*,#174,.T.);
#41=ORIENTED_EDGE('',*,*,#175,.T.);
#42=ORIENTED_EDGE('',*,*,#176,.F.);
#43=ORIENTED_EDGE('',*,*,#172,.F.);
#44=ORIENTED_EDGE('',*,*,#177,.T.);
#45=ORIENTED_EDGE('',*,*,#178,.T.);
#46=ORIENTED_EDGE('',*,*,#179,.F.);
#47=ORIENTED_EDGE('',*,*,#175,.F.);
#48=ORIENTED_EDGE('',*,*,#180,.T.);
#49=ORIENTED_EDGE('',*,*,#181,.T.);
#50=ORIENTED_EDGE('',*,*,#182,.F.);
#51=ORIENTED_EDGE('',*,*,#178,.F.);
#52=ORIENTED_EDGE('',*,*,#183,.T.);
#53=ORIENTED_EDGE('',*,*,#184,.T.);
#54=ORIENTED_EDGE('',*,*,#185,.F.);
#55=ORIENTED_EDGE('',*,*,#181,.F.);
#56=ORIENTED_EDGE('',*,*,#186,.T.);
#57=ORIENTED_EDGE('',*,*,#187,.T.);
#58=ORIENTED_EDGE('',*,*,#188,.F.);
#59=ORIENTED_EDGE('',*,*,#184,.F.);
#60=ORIENTED_EDGE('',*,*,#189,.T.);
#61=ORIENTED_EDGE('',*,*,#190,.T.);
#62=ORIENTED_EDGE('',*,*,#191,.F.);
#63=ORIENTED_EDGE('',*,*,#187,.F.);
#64=ORIENTED_EDGE('',*,*,#192,.T.);
#65=ORIENTED_EDGE('',*,*,#167,.T.);
#66=ORIENTED_EDGE('',*,*,#193,.F.);
#67=ORIENTED_EDGE('',*,*,#190,.F.);
#68=ORIENTED_EDGE('',*,*,#194,.T.);
#69=ORIENTED_EDGE('',*,*,#193,.T.);
#70=ORIENTED_EDGE('',*,*,#166,.T.);
#71=ORIENTED_EDGE('',*,*,#170,.T.);
#72=ORIENTED_EDGE('',*,*,#173,.T.);
#73=ORIENTED_EDGE('',*,*,#176,.T.);
#74=ORIENTED_EDGE('',*,*,#179,.T.);
#75=ORIENTED_EDGE('',*,*,#182,.T.);
#76=ORIENTED_EDGE('',*,*,#185,.T.);
#77=ORIENTED_EDGE('',*,*,#188,.T.);
#78=ORIENTED_EDGE('',*,*,#191,.T.);
#79=ORIENTED_EDGE('',*,*,#194,.F.);
#80=ORIENTED_EDGE('',*,*,#192,.F.);
#81=ORIENTED_EDGE('',*,*,#189,.F.);
#82=ORIENTED_EDGE('',*,*,#186,.F.);
#83=ORIENTED_EDGE('',*,*,#183,.F.);
#84=ORIENTED_EDGE('',*,*,#180,.F.);
#85=ORIENTED_EDGE('',*,*,#177,.F.);
#86=ORIENTED_EDGE('',*,*,#174,.F.);
#87=ORIENTED_EDGE('',*,*,#171,.F.);
#88=ORIENTED_EDGE('',*,*,#168,.F.);
#89=VECTOR('',#221,1.);
#90=VECTOR('',#222,1.);
#91=VECTOR('',#223,1.);
#92=VECTOR('',#224,1.);
#93=VECTOR('',#227,1.);
#94=VECTOR('',#228,1.);
#95=VECTOR('',#229,1.);
#96=VECTOR('',#232,1.);
#97=VECTOR('',#233,1.);
#98=VECTOR('',#234,1.);
#99=VECTOR('',#237,1.);
#100=VECTOR('',#238,1.);
#101=VECTOR('',#239,1.);
#102=VECTOR('',#242,1.);
#103=VECTOR('',#243,1.);
#104=VECTOR('',#244,1.);
#105=VECTOR('',#247,1.);
#106=VECTOR('',#248,1.);
#107=VECTOR('',#249,1.);
#108=VECTOR('',#252,1.);
#109=VECTOR('',#253,1.);
#110=VECTOR('',#254,1.);
#111=VECTOR('',#257,1.);
#112=VECTOR('',#258,1.);
#113=VECTOR('',#259,1.);
#114=VECTOR('',#262,1.);
#115=VECTOR('',#269,1.);
#116=VECTOR('',#270,1.);
#117=LINE('',#282,#89);
#118=LINE('',#284,#90);
#119=LINE('',#286,#91);
#120=LINE('',#287,#92);
#121=LINE('',#291,#93);
#122=LINE('',#292,#94);
#123=LINE('',#293,#95);
#124=LINE('',#297,#96);
#125=LINE('',#298,#97);
#126=LINE('',#299,#98);
#127=LINE('',#303,#99);
#128=LINE('',#304,#100);
#129=LINE('',#305,#101);
#130=LINE('',#309,#102);
#131=LINE('',#310,#103);
#132=LINE('',#311,#104);
#133=LINE('',#315,#105);
#134=LINE('',#316,#106);
#135=LINE('',#317,#107);
#136=LINE('',#321,#108);
#137=LINE('',#322,#109);
#138=LINE('',#323,#110);
#139=LINE('',#327,#111);
#140=LINE('',#328,#112);
#141=LINE('',#329,#113);
#142=LINE('',#333,#114);
#143=LINE('',#337,#115);
#144=LINE('',#338,#116);
#145=VERTEX_POINT('',#280);
#146=VERTEX_POINT('',#281);
#147=VERTEX_POINT('',#283);
#148=VERTEX_POINT('',#285);
#149=VERTEX_POINT('',#289);
#150=VERTEX_POINT('',#290);
#151=VERTEX_POINT('',#295);
#152=VERTEX_POINT('',#296);
#153=VERTEX_POINT('',#301);
#154=VERTEX_POINT('',#302);
#155=VERTEX_POINT('',#307);
#156=VERTEX_POINT('',#308);
#157=VERTEX_POINT('',#313);
#158=VERTEX_POINT('',#314);
#159=VERTEX_POINT('',#319);
#160=VERTEX_POINT('',#320);
#161=VERTEX_POINT('',#325);
#162=VERTEX_POINT('',#326);
#163=VERTEX_POINT('',#331);
#164=VERTEX_POINT('',#332);
#165=EDGE_CURVE('',#145,#146,#117,.T.);
#166=EDGE_CURVE('',#147,#146,#118,.T.);
#167=EDGE_CURVE('',#148,#147,#119,.T.);
#168=EDGE_CURVE('',#148,#145,#120,.T.);
#169=EDGE_CURVE('',#149,#150,#121,.T.);
#170=EDGE_CURVE('',#146,#150,#122,.T.);
#171=EDGE_CURVE('',#145,#149,#123,.T.);
#172=EDGE_CURVE('',#151,#152,#124,.T.);
#173=EDGE_CURVE('',#150,#152,#125,.T.);
#174=EDGE_CURVE('',#149,#151,#126,.T.);
#175=EDGE_CURVE('',#153,#154,#127,.T.);
#176=EDGE_CURVE('',#152,#154,#128,.T.);
#177=EDGE_CURVE('',#151,#153,#129,.T.);
#178=EDGE_CURVE('',#155,#156,#130,.T.);
#179=EDGE_CURVE('',#154,#156,#131,.T.);
#180=EDGE_CURVE('',#153,#155,#132,.T.);
#181=EDGE_CURVE('',#157,#158,#133,.T.);
#182=EDGE_CURVE('',#156,#158,#134,.T.);
#183=EDGE_CURVE('',#155,#157,#135,.T.);
#184=EDGE_CURVE('',#159,#160,#136,.T.);
#185=EDGE_CURVE('',#158,#160,#137,.T.);
#186=EDGE_CURVE('',#157,#159,#138,.T.);
#187=EDGE_CURVE('',#161,#162,#139,.T.);
#188=EDGE_CURVE('',#160,#162,#140,.T.);
#189=EDGE_CURVE('',#159,#161,#141,.T.);
#190=EDGE_CURVE('',#163,#164,#142,.T.);
#191=EDGE_CURVE('',#162,#164,#26,.T.);
#192=EDGE_CURVE('',#161,#163,#27,.T.);
#193=EDGE_CURVE('',#164,#147,#143,.T.);
#194=EDGE_CURVE('',#163,#148,#144,.T.);
#195=EDGE_LOOP('',(#29,#30,#31,#32));
#196=EDGE_LOOP('',(#33,#34,#35,#36));
#197=EDGE_LOOP('',(#37,#38,#39,#40));
#198=EDGE_LOOP('',(#41,#42,#43,#44));
#199=EDGE_LOOP('',(#45,#46,#47,#48));
#200=EDGE_LOOP('',(#49,#50,#51,#52));
#201=EDGE_LOOP('',(#53,#54,#55,#56));
#202=EDGE_LOOP('',(#57,#58,#59,#60));
#203=EDGE_LOOP('',(#61,#62,#63,#64));
#204=EDGE_LOOP('',(#65,#66,#67,#68));
#205=EDGE_LOOP('',(#69,#70,#71,#72,#73,#74,#75,#76,#77,#78));
#206=EDGE_LOOP('',(#79,#80,#81,#82,#83,#84,#85,#86,#87,#88));
#207=FACE_BOUND('',#195,.T.);
#208=FACE_BOUND('',#196,.T.);
#209=FACE_BOUND('',#197,.T.);
#210=FACE_BOUND('',#198,.T.);
#211=FACE_BOUND('',#199,.T.);
#212=FACE_BOUND('',#200,.T.);
#213=FACE_BOUND('',#201,.T.);
#214=FACE_BOUND('',#202,.T.);
#215=FACE_BOUND('',#203,.T.);
#216=FACE_BOUND('',#204,.T.);
#217=FACE_BOUND('',#205,.T.);
#218=FACE_BOUND('',#206,.T.);
#219=DIRECTION('',(-6.41654724417896E-017,-3.27745875749472E-018,1.));
#220=DIRECTION('',(0.,-1.,-3.27745875749472E-018));
#221=DIRECTION('',(-999.999999999999,0.,0.));
#222=DIRECTION('',(0.,1.5,0.));
#223=DIRECTION('',(-999.999999999999,0.,0.));
#224=DIRECTION('',(0.,1.5,0.));
#225=DIRECTION('',(0.,1.,1.30841038223648E-017));
#226=DIRECTION('',(1.,0.,0.));
#227=DIRECTION('',(-999.999999999999,0.,0.));
#228=DIRECTION('',(0.,0.,-2.75));
#229=DIRECTION('',(-1.13686837721616E-013,0.,-2.75));
#230=DIRECTION('',(-6.41654724417896E-017,-3.27745875749472E-018,1.));
#231=DIRECTION('',(0.,-1.,-3.27745875749472E-018));
#232=DIRECTION('',(-999.999999999999,0.,0.));
#233=DIRECTION('',(0.,0.5,0.));
#234=DIRECTION('',(0.,0.5,0.));
#235=DIRECTION('',(0.,1.,1.30841038223648E-017));
#236=DIRECTION('',(1.,0.,0.));
#237=DIRECTION('',(-999.999999999999,0.,0.));
#238=DIRECTION('',(0.,0.,-9.80000000000018));
#239=DIRECTION('',(1.13686837721616E-013,0.,-9.80000000000018));
#240=DIRECTION('',(6.41654724417896E-017,3.27745875749472E-018,-1.));
#241=DIRECTION('',(0.,1.,3.27745875749472E-018));
#242=DIRECTION('',(-999.999999999999,0.,0.));
#243=DIRECTION('',(0.,-0.5,0.));
#244=DIRECTION('',(-1.13686837721616E-013,-0.5,0.));
#245=DIRECTION('',(0.,1.,1.30841038223648E-017));
#246=DIRECTION('',(1.,0.,0.));
#247=DIRECTION('',(-999.999999999999,0.,0.));
#248=DIRECTION('',(0.,0.,-2.75));
#249=DIRECTION('',(0.,0.,-2.75));
#250=DIRECTION('',(6.41654724417896E-017,3.27745875749472E-018,-1.));
#251=DIRECTION('',(0.,1.,3.27745875749472E-018));
#252=DIRECTION('',(-999.999999999999,0.,0.));
#253=DIRECTION('',(0.,-1.5,0.));
#254=DIRECTION('',(0.,-1.5,0.));
#255=DIRECTION('',(0.,-0.642787609686538,-0.766044443118979));
#256=DIRECTION('',(0.,0.766044443118979,-0.642787609686538));
#257=DIRECTION('',(-999.999999999999,0.,0.));
#258=DIRECTION('',(0.,-1.81342524595493,1.52164445504832));
#259=DIRECTION('',(0.,-1.81342524595493,1.52164445504832));
#260=DIRECTION('',(-1.,0.,0.));
#261=DIRECTION('',(0.,-0.642787609686574,-0.766044443118949));
#262=DIRECTION('',(-999.999999999999,0.,0.));
#263=DIRECTION('',(-1.,-2.27782550463236E-018,1.91132254082339E-018));
#264=DIRECTION('',(0.,-5.14230087749274,-6.12835554495177));
#265=DIRECTION('',(-1.,-2.27782550463236E-018,1.91132254082339E-018));
#266=DIRECTION('',(0.,-5.14230087749274,-6.12835554495177));
#267=DIRECTION('',(2.77555756156289E-017,-0.642787609686542,0.766044443118976));
#268=DIRECTION('',(0.,-0.766044443118976,-0.642787609686542));
#269=DIRECTION('',(0.,1.81342524595493,1.52164445504832));
#270=DIRECTION('',(1.13686837721616E-013,1.81342524595493,1.52164445504832));
#271=DIRECTION('',(-1.,0.,4.62592926927148E-018));
#272=DIRECTION('',(0.,1.,0.));
#273=DIRECTION('',(1.,0.,-4.62592926927148E-018));
#274=DIRECTION('',(0.,-1.,0.));
#275=DIRECTION('',(0.,0.,1.));
#276=DIRECTION('',(1.,0.,0.));
#277=DIRECTION('',(1.,0.,0.));
#278=DIRECTION('',(0.,0.,-1.));
#279=CARTESIAN_POINT('',(999.999999999999,-6.,7.65000000000009));
#280=CARTESIAN_POINT('',(999.999999999999,-6.,7.65000000000009));
#281=CARTESIAN_POINT('',(0.,-6.,7.65000000000009));
#282=CARTESIAN_POINT('',(999.999999999999,-6.,7.65000000000009));
#283=CARTESIAN_POINT('',(0.,-7.5,7.65000000000009));
#284=CARTESIAN_POINT('',(0.,-7.5,7.65000000000009));
#285=CARTESIAN_POINT('',(999.999999999999,-7.5,7.65000000000009));
#286=CARTESIAN_POINT('',(999.999999999999,-7.5,7.65000000000009));
#287=CARTESIAN_POINT('',(999.999999999999,-7.5,7.65000000000009));
#288=CARTESIAN_POINT('',(999.999999999999,-6.,4.90000000000009));
#289=CARTESIAN_POINT('',(999.999999999999,-6.,4.90000000000009));
#290=CARTESIAN_POINT('',(0.,-6.,4.90000000000009));
#291=CARTESIAN_POINT('',(999.999999999999,-6.,4.90000000000009));
#292=CARTESIAN_POINT('',(0.,-6.,7.65000000000009));
#293=CARTESIAN_POINT('',(999.999999999999,-6.,7.65000000000009));
#294=CARTESIAN_POINT('',(999.999999999999,-5.5,4.90000000000009));
#295=CARTESIAN_POINT('',(999.999999999999,-5.5,4.90000000000009));
#296=CARTESIAN_POINT('',(0.,-5.5,4.90000000000009));
#297=CARTESIAN_POINT('',(999.999999999999,-5.5,4.90000000000009));
#298=CARTESIAN_POINT('',(0.,-6.,4.90000000000009));
#299=CARTESIAN_POINT('',(999.999999999999,-6.,4.90000000000009));
#300=CARTESIAN_POINT('',(999.999999999999,-5.5,-4.90000000000009));
#301=CARTESIAN_POINT('',(999.999999999999,-5.5,-4.90000000000009));
#302=CARTESIAN_POINT('',(0.,-5.5,-4.90000000000009));
#303=CARTESIAN_POINT('',(999.999999999999,-5.5,-4.90000000000009));
#304=CARTESIAN_POINT('',(0.,-5.5,4.90000000000009));
#305=CARTESIAN_POINT('',(999.999999999999,-5.5,4.90000000000009));
#306=CARTESIAN_POINT('',(999.999999999999,-6.,-4.90000000000009));
#307=CARTESIAN_POINT('',(999.999999999999,-6.,-4.90000000000009));
#308=CARTESIAN_POINT('',(0.,-6.,-4.90000000000009));
#309=CARTESIAN_POINT('',(999.999999999999,-6.,-4.90000000000009));
#310=CARTESIAN_POINT('',(0.,-5.5,-4.90000000000009));
#311=CARTESIAN_POINT('',(999.999999999999,-5.5,-4.90000000000009));
#312=CARTESIAN_POINT('',(999.999999999999,-6.,-7.65000000000009));
#313=CARTESIAN_POINT('',(999.999999999999,-6.,-7.65000000000009));
#314=CARTESIAN_POINT('',(0.,-6.,-7.65000000000009));
#315=CARTESIAN_POINT('',(999.999999999999,-6.,-7.65000000000009));
#316=CARTESIAN_POINT('',(0.,-6.,-4.90000000000009));
#317=CARTESIAN_POINT('',(999.999999999999,-6.,-4.90000000000009));
#318=CARTESIAN_POINT('',(999.999999999999,-7.5,-7.65000000000009));
#319=CARTESIAN_POINT('',(999.999999999999,-7.5,-7.65000000000009));
#320=CARTESIAN_POINT('',(0.,-7.5,-7.65000000000009));
#321=CARTESIAN_POINT('',(999.999999999999,-7.5,-7.65000000000009));
#322=CARTESIAN_POINT('',(0.,-6.,-7.65000000000009));
#323=CARTESIAN_POINT('',(999.999999999999,-6.,-7.65000000000009));
#324=CARTESIAN_POINT('',(999.999999999999,-9.31342524595493,-6.12835554495177));
#325=CARTESIAN_POINT('',(999.999999999999,-9.31342524595493,-6.12835554495177));
#326=CARTESIAN_POINT('',(0.,-9.31342524595493,-6.12835554495177));
#327=CARTESIAN_POINT('',(999.999999999999,-9.31342524595493,-6.12835554495177));
#328=CARTESIAN_POINT('',(0.,-7.5,-7.65000000000009));
#329=CARTESIAN_POINT('',(999.999999999999,-7.5,-7.65000000000009));
#330=CARTESIAN_POINT('',(999.999999999999,-4.17112436846219,0.));
#331=CARTESIAN_POINT('',(999.999999999999,-9.31342524595493,6.12835554495177));
#332=CARTESIAN_POINT('',(0.,-9.31342524595493,6.12835554495177));
#333=CARTESIAN_POINT('',(999.999999999999,-9.31342524595493,6.12835554495177));
#334=CARTESIAN_POINT('',(0.,-4.17112436846219,0.));
#335=CARTESIAN_POINT('',(999.999999999999,-4.17112436846219,0.));
#336=CARTESIAN_POINT('',(999.999999999999,-7.5,7.65000000000009));
#337=CARTESIAN_POINT('',(0.,-9.31342524595493,6.12835554495177));
#338=CARTESIAN_POINT('',(999.999999999999,-9.31342524595493,6.12835554495177));
#339=CARTESIAN_POINT('',(0.,-9.31342524595493,6.12835554495177));
#340=CARTESIAN_POINT('',(999.999999999999,-7.5,7.65000000000009));
#341=CARTESIAN_POINT('',(0.,0.,0.));
#342=CARTESIAN_POINT('',(-3307.47039192744,8381.28913254351,999.999999999999));
#343=AXIS2_PLACEMENT_3D('',#279,#219,#220);
#344=AXIS2_PLACEMENT_3D('',#288,#225,#226);
#345=AXIS2_PLACEMENT_3D('',#294,#230,#231);
#346=AXIS2_PLACEMENT_3D('',#300,#235,#236);
#347=AXIS2_PLACEMENT_3D('',#306,#240,#241);
#348=AXIS2_PLACEMENT_3D('',#312,#245,#246);
#349=AXIS2_PLACEMENT_3D('',#318,#250,#251);
#350=AXIS2_PLACEMENT_3D('',#324,#255,#256);
#351=AXIS2_PLACEMENT_3D('',#330,#260,#261);
#352=AXIS2_PLACEMENT_3D('',#334,#263,#264);
#353=AXIS2_PLACEMENT_3D('',#335,#265,#266);
#354=AXIS2_PLACEMENT_3D('',#336,#267,#268);
#355=AXIS2_PLACEMENT_3D('',#339,#271,#272);
#356=AXIS2_PLACEMENT_3D('',#340,#273,#274);
#357=AXIS2_PLACEMENT_3D('',#341,#275,#276);
#358=AXIS2_PLACEMENT_3D('',#342,#277,#278);
#359=PLANE('',#343);
#360=PLANE('',#344);
#361=PLANE('',#345);
#362=PLANE('',#346);
#363=PLANE('',#347);
#364=PLANE('',#348);
#365=PLANE('',#349);
#366=PLANE('',#350);
#367=PLANE('',#354);
#368=PLANE('',#355);
#369=PLANE('',#356);
#370=ADVANCED_FACE('',(#207),#359,.T.);
#371=ADVANCED_FACE('',(#208),#360,.T.);
#372=ADVANCED_FACE('',(#209),#361,.T.);
#373=ADVANCED_FACE('',(#210),#362,.T.);
#374=ADVANCED_FACE('',(#211),#363,.T.);
#375=ADVANCED_FACE('',(#212),#364,.T.);
#376=ADVANCED_FACE('',(#213),#365,.T.);
#377=ADVANCED_FACE('',(#214),#366,.T.);
#378=ADVANCED_FACE('',(#215),#28,.T.);
#379=ADVANCED_FACE('',(#216),#367,.T.);
#380=ADVANCED_FACE('',(#217),#368,.T.);
#381=ADVANCED_FACE('',(#218),#369,.T.);
#382=MANIFOLD_SOLID_BREP('Solid',#25);
#383=SHAPE_REPRESENTATION('RootProduct',(#358),#401);
#384=PRODUCT_DEFINITION_SHAPE('','',#388);
#385=PRODUCT_DEFINITION_SHAPE('','',#389);
#386=PRODUCT_DEFINITION_SHAPE('',$,#13);
#387=PRODUCT_DEFINITION_CONTEXT('part definition',#393,'');
#388=PRODUCT_DEFINITION('','',#390,#387);
#389=PRODUCT_DEFINITION('','',#391,#387);
#390=PRODUCT_DEFINITION_FORMATION('','',#395);
#391=PRODUCT_DEFINITION_FORMATION('','',#396);
#392=APPLICATION_PROTOCOL_DEFINITION('international standard',
'automotive_design',2003,#393);
#393=APPLICATION_CONTEXT(
'Core Data for Automotive Mechanical Design Process');
#394=PRODUCT_CONTEXT('part definition',#393,'');
#395=PRODUCT('Root','Root','',(#394));
#396=PRODUCT('122355Sleufmoerprofiel 10 L= 1mBOIKON0',
'122355Sleufmoerprofiel 10 L= 1mBOIKON0','',(#394));
#397=SHAPE_DEFINITION_REPRESENTATION(#384,#383);
#398=SHAPE_DEFINITION_REPRESENTATION(#385,#24);
#399=PRODUCT_RELATED_PRODUCT_CATEGORY('','',(#395,#396));
#400=UNCERTAINTY_MEASURE_WITH_UNIT(LENGTH_MEASURE(0.001),#403,
'DISTANCE_ACCURACY_VALUE',
'Maximum model space distance between geometric entities at asserted co
nnectivities');
#401=(
GEOMETRIC_REPRESENTATION_CONTEXT(3)
GLOBAL_UNCERTAINTY_ASSIGNED_CONTEXT((#400))
GLOBAL_UNIT_ASSIGNED_CONTEXT((#403,#405,#408))
REPRESENTATION_CONTEXT('Default Context','3D')
);
#402=(
GEOMETRIC_REPRESENTATION_CONTEXT(3)
GLOBAL_UNCERTAINTY_ASSIGNED_CONTEXT((#400))
GLOBAL_UNIT_ASSIGNED_CONTEXT((#403,#405,#408))
REPRESENTATION_CONTEXT('Default Context','3D')
);
#403=(
LENGTH_UNIT()
NAMED_UNIT(*)
SI_UNIT(.MILLI.,.METRE.)
);
#404=DIMENSIONAL_EXPONENTS(0.,0.,0.,0.,0.,0.,0.);
#405=(
CONVERSION_BASED_UNIT('degree',#407)
NAMED_UNIT(#404)
PLANE_ANGLE_UNIT()
);
#406=(
NAMED_UNIT(*)
PLANE_ANGLE_UNIT()
SI_UNIT($,.RADIAN.)
);
#407=PLANE_ANGLE_MEASURE_WITH_UNIT(PLANE_ANGLE_MEASURE(0.01745329252),#406);
#408=(
NAMED_UNIT(*)
SI_UNIT($,.STERADIAN.)
SOLID_ANGLE_UNIT()
);
ENDSEC;
END-ISO-10303-21;
