ISO-10303-21;
HEADER;
/* Generated by software containing ST-Developer
 * from STEP Tools, Inc. (www.steptools.com) 
 */
/* OPTION: using custom schema-name function */

FILE_DESCRIPTION(
/* description */ (''),
/* implementation_level */ '2;1');

FILE_NAME(
/* name */ '122520',
/* time_stamp */ '2014-10-06T10:56:34+02:00',
/* author */ (''),
/* organization */ (''),
/* preprocessor_version */ 'ST-DEVELOPER v14',
/* originating_system */ 'HiCAD 2013 1802.4 Build 509',
/* authorisation */ '');

FILE_SCHEMA (('AUTOMOTIVE_DESIGN { 1 0 10303 214 1 1 1 1 }'));
ENDSEC;

DATA;
#10=ITEM_DEFINED_TRANSFORMATION('','',#354,#355);
#11=(
REPRESENTATION_RELATIONSHIP('','',#24,#381)
REPRESENTATION_RELATIONSHIP_WITH_TRANSFORMATION(#10)
SHAPE_REPRESENTATION_RELATIONSHIP()
);
#12=CONTEXT_DEPENDENT_SHAPE_REPRESENTATION(#11,#384);
#13=NEXT_ASSEMBLY_USAGE_OCCURRENCE(
'122520T-Sleufmoerprofiel 10 L=1mBOIKON0',
'122520T-Sleufmoerprofiel 10 L=1mBOIKON0','',#386,#387,$);
#14=PRESENTATION_STYLE_ASSIGNMENT((#15));
#15=SURFACE_STYLE_USAGE(.BOTH.,#16);
#16=SURFACE_SIDE_STYLE('',(#17));
#17=SURFACE_STYLE_FILL_AREA(#18);
#18=FILL_AREA_STYLE('',(#19));
#19=FILL_AREA_STYLE_COLOUR('',#20);
#20=COLOUR_RGB('',0.443136990070343,0.717647016048431,0.807843029499054);
#21=STYLED_ITEM('Solid Colour',(#14),#380);
#22=MECHANICAL_DESIGN_GEOMETRIC_PRESENTATION_REPRESENTATION(
'Container for Styled_item',(#21),#399);
#23=PRESENTATION_LAYER_ASSIGNMENT('1','1',(#380));
#24=ADVANCED_BREP_SHAPE_REPRESENTATION('Body',(#380,#354),#400);
#25=CLOSED_SHELL('',(#368,#369,#370,#371,#372,#373,#374,#375,#376,#377,#378,
#379));
#26=ORIENTED_EDGE('',*,*,#166,.T.);
#27=ORIENTED_EDGE('',*,*,#167,.F.);
#28=ORIENTED_EDGE('',*,*,#168,.F.);
#29=ORIENTED_EDGE('',*,*,#169,.T.);
#30=ORIENTED_EDGE('',*,*,#170,.T.);
#31=ORIENTED_EDGE('',*,*,#171,.F.);
#32=ORIENTED_EDGE('',*,*,#166,.F.);
#33=ORIENTED_EDGE('',*,*,#172,.T.);
#34=ORIENTED_EDGE('',*,*,#173,.T.);
#35=ORIENTED_EDGE('',*,*,#174,.F.);
#36=ORIENTED_EDGE('',*,*,#170,.F.);
#37=ORIENTED_EDGE('',*,*,#175,.T.);
#38=ORIENTED_EDGE('',*,*,#176,.T.);
#39=ORIENTED_EDGE('',*,*,#177,.F.);
#40=ORIENTED_EDGE('',*,*,#173,.F.);
#41=ORIENTED_EDGE('',*,*,#178,.T.);
#42=ORIENTED_EDGE('',*,*,#179,.T.);
#43=ORIENTED_EDGE('',*,*,#180,.F.);
#44=ORIENTED_EDGE('',*,*,#176,.F.);
#45=ORIENTED_EDGE('',*,*,#181,.T.);
#46=ORIENTED_EDGE('',*,*,#182,.T.);
#47=ORIENTED_EDGE('',*,*,#183,.F.);
#48=ORIENTED_EDGE('',*,*,#179,.F.);
#49=ORIENTED_EDGE('',*,*,#184,.T.);
#50=ORIENTED_EDGE('',*,*,#185,.T.);
#51=ORIENTED_EDGE('',*,*,#186,.F.);
#52=ORIENTED_EDGE('',*,*,#182,.F.);
#53=ORIENTED_EDGE('',*,*,#187,.T.);
#54=ORIENTED_EDGE('',*,*,#188,.T.);
#55=ORIENTED_EDGE('',*,*,#189,.F.);
#56=ORIENTED_EDGE('',*,*,#185,.F.);
#57=ORIENTED_EDGE('',*,*,#190,.T.);
#58=ORIENTED_EDGE('',*,*,#191,.T.);
#59=ORIENTED_EDGE('',*,*,#192,.F.);
#60=ORIENTED_EDGE('',*,*,#188,.F.);
#61=ORIENTED_EDGE('',*,*,#193,.T.);
#62=ORIENTED_EDGE('',*,*,#168,.T.);
#63=ORIENTED_EDGE('',*,*,#194,.F.);
#64=ORIENTED_EDGE('',*,*,#191,.F.);
#65=ORIENTED_EDGE('',*,*,#195,.T.);
#66=ORIENTED_EDGE('',*,*,#194,.T.);
#67=ORIENTED_EDGE('',*,*,#167,.T.);
#68=ORIENTED_EDGE('',*,*,#171,.T.);
#69=ORIENTED_EDGE('',*,*,#174,.T.);
#70=ORIENTED_EDGE('',*,*,#177,.T.);
#71=ORIENTED_EDGE('',*,*,#180,.T.);
#72=ORIENTED_EDGE('',*,*,#183,.T.);
#73=ORIENTED_EDGE('',*,*,#186,.T.);
#74=ORIENTED_EDGE('',*,*,#189,.T.);
#75=ORIENTED_EDGE('',*,*,#192,.T.);
#76=ORIENTED_EDGE('',*,*,#195,.F.);
#77=ORIENTED_EDGE('',*,*,#193,.F.);
#78=ORIENTED_EDGE('',*,*,#190,.F.);
#79=ORIENTED_EDGE('',*,*,#187,.F.);
#80=ORIENTED_EDGE('',*,*,#184,.F.);
#81=ORIENTED_EDGE('',*,*,#181,.F.);
#82=ORIENTED_EDGE('',*,*,#178,.F.);
#83=ORIENTED_EDGE('',*,*,#175,.F.);
#84=ORIENTED_EDGE('',*,*,#172,.F.);
#85=ORIENTED_EDGE('',*,*,#169,.F.);
#86=VECTOR('',#222,1.);
#87=VECTOR('',#223,1.);
#88=VECTOR('',#224,1.);
#89=VECTOR('',#225,1.);
#90=VECTOR('',#228,1.);
#91=VECTOR('',#229,1.);
#92=VECTOR('',#230,1.);
#93=VECTOR('',#233,1.);
#94=VECTOR('',#234,1.);
#95=VECTOR('',#235,1.);
#96=VECTOR('',#238,1.);
#97=VECTOR('',#239,1.);
#98=VECTOR('',#240,1.);
#99=VECTOR('',#243,1.);
#100=VECTOR('',#244,1.);
#101=VECTOR('',#245,1.);
#102=VECTOR('',#248,1.);
#103=VECTOR('',#249,1.);
#104=VECTOR('',#250,1.);
#105=VECTOR('',#253,1.);
#106=VECTOR('',#254,1.);
#107=VECTOR('',#255,1.);
#108=VECTOR('',#258,1.);
#109=VECTOR('',#259,1.);
#110=VECTOR('',#260,1.);
#111=VECTOR('',#263,1.);
#112=VECTOR('',#264,1.);
#113=VECTOR('',#265,1.);
#114=VECTOR('',#268,1.);
#115=VECTOR('',#269,1.);
#116=LINE('',#281,#86);
#117=LINE('',#283,#87);
#118=LINE('',#285,#88);
#119=LINE('',#286,#89);
#120=LINE('',#290,#90);
#121=LINE('',#291,#91);
#122=LINE('',#292,#92);
#123=LINE('',#296,#93);
#124=LINE('',#297,#94);
#125=LINE('',#298,#95);
#126=LINE('',#302,#96);
#127=LINE('',#303,#97);
#128=LINE('',#304,#98);
#129=LINE('',#308,#99);
#130=LINE('',#309,#100);
#131=LINE('',#310,#101);
#132=LINE('',#314,#102);
#133=LINE('',#315,#103);
#134=LINE('',#316,#104);
#135=LINE('',#320,#105);
#136=LINE('',#321,#106);
#137=LINE('',#322,#107);
#138=LINE('',#326,#108);
#139=LINE('',#327,#109);
#140=LINE('',#328,#110);
#141=LINE('',#332,#111);
#142=LINE('',#333,#112);
#143=LINE('',#334,#113);
#144=LINE('',#336,#114);
#145=LINE('',#337,#115);
#146=VERTEX_POINT('',#279);
#147=VERTEX_POINT('',#280);
#148=VERTEX_POINT('',#282);
#149=VERTEX_POINT('',#284);
#150=VERTEX_POINT('',#288);
#151=VERTEX_POINT('',#289);
#152=VERTEX_POINT('',#294);
#153=VERTEX_POINT('',#295);
#154=VERTEX_POINT('',#300);
#155=VERTEX_POINT('',#301);
#156=VERTEX_POINT('',#306);
#157=VERTEX_POINT('',#307);
#158=VERTEX_POINT('',#312);
#159=VERTEX_POINT('',#313);
#160=VERTEX_POINT('',#318);
#161=VERTEX_POINT('',#319);
#162=VERTEX_POINT('',#324);
#163=VERTEX_POINT('',#325);
#164=VERTEX_POINT('',#330);
#165=VERTEX_POINT('',#331);
#166=EDGE_CURVE('',#146,#147,#116,.T.);
#167=EDGE_CURVE('',#148,#147,#117,.T.);
#168=EDGE_CURVE('',#149,#148,#118,.T.);
#169=EDGE_CURVE('',#149,#146,#119,.T.);
#170=EDGE_CURVE('',#150,#151,#120,.T.);
#171=EDGE_CURVE('',#147,#151,#121,.T.);
#172=EDGE_CURVE('',#146,#150,#122,.T.);
#173=EDGE_CURVE('',#152,#153,#123,.T.);
#174=EDGE_CURVE('',#151,#153,#124,.T.);
#175=EDGE_CURVE('',#150,#152,#125,.T.);
#176=EDGE_CURVE('',#154,#155,#126,.T.);
#177=EDGE_CURVE('',#153,#155,#127,.T.);
#178=EDGE_CURVE('',#152,#154,#128,.T.);
#179=EDGE_CURVE('',#156,#157,#129,.T.);
#180=EDGE_CURVE('',#155,#157,#130,.T.);
#181=EDGE_CURVE('',#154,#156,#131,.T.);
#182=EDGE_CURVE('',#158,#159,#132,.T.);
#183=EDGE_CURVE('',#157,#159,#133,.T.);
#184=EDGE_CURVE('',#156,#158,#134,.T.);
#185=EDGE_CURVE('',#160,#161,#135,.T.);
#186=EDGE_CURVE('',#159,#161,#136,.T.);
#187=EDGE_CURVE('',#158,#160,#137,.T.);
#188=EDGE_CURVE('',#162,#163,#138,.T.);
#189=EDGE_CURVE('',#161,#163,#139,.T.);
#190=EDGE_CURVE('',#160,#162,#140,.T.);
#191=EDGE_CURVE('',#164,#165,#141,.T.);
#192=EDGE_CURVE('',#163,#165,#142,.T.);
#193=EDGE_CURVE('',#162,#164,#143,.T.);
#194=EDGE_CURVE('',#165,#148,#144,.T.);
#195=EDGE_CURVE('',#164,#149,#145,.T.);
#196=EDGE_LOOP('',(#26,#27,#28,#29));
#197=EDGE_LOOP('',(#30,#31,#32,#33));
#198=EDGE_LOOP('',(#34,#35,#36,#37));
#199=EDGE_LOOP('',(#38,#39,#40,#41));
#200=EDGE_LOOP('',(#42,#43,#44,#45));
#201=EDGE_LOOP('',(#46,#47,#48,#49));
#202=EDGE_LOOP('',(#50,#51,#52,#53));
#203=EDGE_LOOP('',(#54,#55,#56,#57));
#204=EDGE_LOOP('',(#58,#59,#60,#61));
#205=EDGE_LOOP('',(#62,#63,#64,#65));
#206=EDGE_LOOP('',(#66,#67,#68,#69,#70,#71,#72,#73,#74,#75));
#207=EDGE_LOOP('',(#76,#77,#78,#79,#80,#81,#82,#83,#84,#85));
#208=FACE_BOUND('',#196,.T.);
#209=FACE_BOUND('',#197,.T.);
#210=FACE_BOUND('',#198,.T.);
#211=FACE_BOUND('',#199,.T.);
#212=FACE_BOUND('',#200,.T.);
#213=FACE_BOUND('',#201,.T.);
#214=FACE_BOUND('',#202,.T.);
#215=FACE_BOUND('',#203,.T.);
#216=FACE_BOUND('',#204,.T.);
#217=FACE_BOUND('',#205,.T.);
#218=FACE_BOUND('',#206,.T.);
#219=FACE_BOUND('',#207,.T.);
#220=DIRECTION('',(0.,-1.,-1.30841038223648E-017));
#221=DIRECTION('',(-1.,0.,0.));
#222=DIRECTION('',(-999.999999999999,1.4210854715202E-014,0.));
#223=DIRECTION('',(0.,0.,13.5));
#224=DIRECTION('',(-999.999999999999,1.4210854715202E-014,-4.9737991503207E-014));
#225=DIRECTION('',(-1.13686837721616E-013,0.,13.4999999999999));
#226=DIRECTION('',(2.77555756156289E-017,-0.707106781186548,0.707106781186547));
#227=DIRECTION('',(-0.707106781186548,-2.77555756156289E-017,0.));
#228=DIRECTION('',(-999.999999999999,-4.2632564145606E-014,-5.6843418860808E-014));
#229=DIRECTION('',(0.,3.,3.));
#230=DIRECTION('',(0.,3.00000000000006,3.00000000000006));
#231=DIRECTION('',(-6.41654724417896E-017,-3.27745875749472E-018,1.));
#232=DIRECTION('',(0.,-1.,-3.27745875749472E-018));
#233=DIRECTION('',(-999.999999999999,1.4210854715202E-014,-5.6843418860808E-014));
#234=DIRECTION('',(0.,3.5,0.));
#235=DIRECTION('',(0.,3.49999999999994,0.));
#236=DIRECTION('',(0.,1.,1.30841038223648E-017));
#237=DIRECTION('',(1.,0.,0.));
#238=DIRECTION('',(-999.999999999999,1.4210854715202E-014,-2.8421709430404E-014));
#239=DIRECTION('',(0.,0.,-4.90000000000001));
#240=DIRECTION('',(0.,0.,-4.90000000000003));
#241=DIRECTION('',(-6.41654724417896E-017,-3.27745875749472E-018,1.));
#242=DIRECTION('',(0.,-1.,-3.27745875749472E-018));
#243=DIRECTION('',(-999.999999999999,-4.2632564145606E-014,2.8421709430404E-014));
#244=DIRECTION('',(0.,4.,0.));
#245=DIRECTION('',(0.,4.00000000000006,-5.6843418860808E-014));
#246=DIRECTION('',(0.,1.,1.30841038223648E-017));
#247=DIRECTION('',(1.,0.,0.));
#248=DIRECTION('',(-999.999999999999,-4.2632564145606E-014,-2.8421709430404E-014));
#249=DIRECTION('',(0.,0.,-9.69999999999998));
#250=DIRECTION('',(0.,0.,-9.69999999999992));
#251=DIRECTION('',(6.41654724417896E-017,3.27745875749472E-018,-1.));
#252=DIRECTION('',(0.,1.,3.27745875749472E-018));
#253=DIRECTION('',(-999.999999999999,-4.2632564145606E-014,2.8421709430404E-014));
#254=DIRECTION('',(0.,-4.,0.));
#255=DIRECTION('',(0.,-4.,-5.6843418860808E-014));
#256=DIRECTION('',(0.,1.,1.30841038223648E-017));
#257=DIRECTION('',(1.,0.,0.));
#258=DIRECTION('',(-999.999999999999,1.4210854715202E-014,0.));
#259=DIRECTION('',(0.,0.,-4.90000000000001));
#260=DIRECTION('',(0.,-5.6843418860808E-014,-4.89999999999998));
#261=DIRECTION('',(6.41654724417896E-017,3.27745875749472E-018,-1.));
#262=DIRECTION('',(0.,1.,3.27745875749472E-018));
#263=DIRECTION('',(-999.999999999999,1.4210854715202E-014,-5.6843418860808E-014));
#264=DIRECTION('',(0.,-3.5,0.));
#265=DIRECTION('',(0.,-3.5,5.6843418860808E-014));
#266=DIRECTION('',(2.77555756156289E-017,-0.707106781186549,-0.707106781186547));
#267=DIRECTION('',(-0.707106781186549,-2.77555756156289E-017,0.));
#268=DIRECTION('',(0.,-3.,3.00000000000001));
#269=DIRECTION('',(1.13686837721616E-013,-3.,3.));
#270=DIRECTION('',(-1.,0.,4.62592926927148E-018));
#271=DIRECTION('',(0.,1.,0.));
#272=DIRECTION('',(1.,0.,-4.62592926927148E-018));
#273=DIRECTION('',(0.,-1.,0.));
#274=DIRECTION('',(0.,0.,1.));
#275=DIRECTION('',(1.,0.,0.));
#276=DIRECTION('',(1.,0.,0.));
#277=DIRECTION('',(0.,0.,-1.));
#278=CARTESIAN_POINT('',(999.999999999999,-11.3,6.75));
#279=CARTESIAN_POINT('',(999.999999999999,-11.3,6.75));
#280=CARTESIAN_POINT('',(0.,-11.3,6.75));
#281=CARTESIAN_POINT('',(999.999999999999,-11.3,6.75));
#282=CARTESIAN_POINT('',(0.,-11.3,-6.74999999999999));
#283=CARTESIAN_POINT('',(0.,-11.3,-6.74999999999999));
#284=CARTESIAN_POINT('',(999.999999999999,-11.3,-6.74999999999994));
#285=CARTESIAN_POINT('',(999.999999999999,-11.3,-6.74999999999994));
#286=CARTESIAN_POINT('',(999.999999999999,-11.3,-6.74999999999994));
#287=CARTESIAN_POINT('',(999.999999999999,-8.29999999999995,9.75000000000006));
#288=CARTESIAN_POINT('',(999.999999999999,-8.29999999999995,9.75000000000006));
#289=CARTESIAN_POINT('',(0.,-8.3,9.75));
#290=CARTESIAN_POINT('',(999.999999999999,-8.29999999999995,9.75000000000006));
#291=CARTESIAN_POINT('',(0.,-11.3,6.75));
#292=CARTESIAN_POINT('',(999.999999999999,-11.3,6.75));
#293=CARTESIAN_POINT('',(999.999999999999,-4.80000000000001,9.75000000000006));
#294=CARTESIAN_POINT('',(999.999999999999,-4.80000000000001,9.75000000000006));
#295=CARTESIAN_POINT('',(0.,-4.8,9.75));
#296=CARTESIAN_POINT('',(999.999999999999,-4.80000000000001,9.75000000000006));
#297=CARTESIAN_POINT('',(0.,-8.3,9.75));
#298=CARTESIAN_POINT('',(999.999999999999,-8.29999999999995,9.75000000000006));
#299=CARTESIAN_POINT('',(999.999999999999,-4.80000000000001,4.85000000000002));
#300=CARTESIAN_POINT('',(999.999999999999,-4.80000000000001,4.85000000000002));
#301=CARTESIAN_POINT('',(0.,-4.8,4.84999999999999));
#302=CARTESIAN_POINT('',(999.999999999999,-4.80000000000001,4.85000000000002));
#303=CARTESIAN_POINT('',(0.,-4.8,9.75));
#304=CARTESIAN_POINT('',(999.999999999999,-4.80000000000001,9.75000000000006));
#305=CARTESIAN_POINT('',(999.999999999999,-0.799999999999955,4.84999999999997));
#306=CARTESIAN_POINT('',(999.999999999999,-0.799999999999955,4.84999999999997));
#307=CARTESIAN_POINT('',(0.,-0.799999999999997,4.84999999999999));
#308=CARTESIAN_POINT('',(999.999999999999,-0.799999999999955,4.84999999999997));
#309=CARTESIAN_POINT('',(0.,-4.8,4.84999999999999));
#310=CARTESIAN_POINT('',(999.999999999999,-4.80000000000001,4.85000000000002));
#311=CARTESIAN_POINT('',(999.999999999999,-0.799999999999955,-4.84999999999996));
#312=CARTESIAN_POINT('',(999.999999999999,-0.799999999999955,-4.84999999999996));
#313=CARTESIAN_POINT('',(0.,-0.799999999999997,-4.84999999999999));
#314=CARTESIAN_POINT('',(999.999999999999,-0.799999999999955,-4.84999999999996));
#315=CARTESIAN_POINT('',(0.,-0.799999999999997,4.84999999999999));
#316=CARTESIAN_POINT('',(999.999999999999,-0.799999999999955,4.84999999999997));
#317=CARTESIAN_POINT('',(999.999999999999,-4.79999999999995,-4.85000000000002));
#318=CARTESIAN_POINT('',(999.999999999999,-4.79999999999995,-4.85000000000002));
#319=CARTESIAN_POINT('',(0.,-4.8,-4.84999999999999));
#320=CARTESIAN_POINT('',(999.999999999999,-4.79999999999995,-4.85000000000002));
#321=CARTESIAN_POINT('',(0.,-0.799999999999997,-4.84999999999999));
#322=CARTESIAN_POINT('',(999.999999999999,-0.799999999999955,-4.84999999999996));
#323=CARTESIAN_POINT('',(999.999999999999,-4.80000000000001,-9.74999999999999));
#324=CARTESIAN_POINT('',(999.999999999999,-4.80000000000001,-9.74999999999999));
#325=CARTESIAN_POINT('',(0.,-4.8,-9.74999999999999));
#326=CARTESIAN_POINT('',(999.999999999999,-4.80000000000001,-9.74999999999999));
#327=CARTESIAN_POINT('',(0.,-4.8,-4.84999999999999));
#328=CARTESIAN_POINT('',(999.999999999999,-4.79999999999995,-4.85000000000002));
#329=CARTESIAN_POINT('',(999.999999999999,-8.30000000000001,-9.74999999999994));
#330=CARTESIAN_POINT('',(999.999999999999,-8.30000000000001,-9.74999999999994));
#331=CARTESIAN_POINT('',(0.,-8.3,-9.74999999999999));
#332=CARTESIAN_POINT('',(999.999999999999,-8.30000000000001,-9.74999999999994));
#333=CARTESIAN_POINT('',(0.,-4.8,-9.74999999999999));
#334=CARTESIAN_POINT('',(999.999999999999,-4.80000000000001,-9.74999999999999));
#335=CARTESIAN_POINT('',(999.999999999999,-11.3,-6.74999999999994));
#336=CARTESIAN_POINT('',(0.,-8.3,-9.74999999999999));
#337=CARTESIAN_POINT('',(999.999999999999,-8.30000000000001,-9.74999999999994));
#338=CARTESIAN_POINT('',(0.,-8.3,-9.74999999999999));
#339=CARTESIAN_POINT('',(999.999999999999,-11.3,-6.74999999999994));
#340=CARTESIAN_POINT('',(0.,0.,0.));
#341=CARTESIAN_POINT('',(64.2780217629402,47.8921054538791,999.999999999999));
#342=AXIS2_PLACEMENT_3D('',#278,#220,#221);
#343=AXIS2_PLACEMENT_3D('',#287,#226,#227);
#344=AXIS2_PLACEMENT_3D('',#293,#231,#232);
#345=AXIS2_PLACEMENT_3D('',#299,#236,#237);
#346=AXIS2_PLACEMENT_3D('',#305,#241,#242);
#347=AXIS2_PLACEMENT_3D('',#311,#246,#247);
#348=AXIS2_PLACEMENT_3D('',#317,#251,#252);
#349=AXIS2_PLACEMENT_3D('',#323,#256,#257);
#350=AXIS2_PLACEMENT_3D('',#329,#261,#262);
#351=AXIS2_PLACEMENT_3D('',#335,#266,#267);
#352=AXIS2_PLACEMENT_3D('',#338,#270,#271);
#353=AXIS2_PLACEMENT_3D('',#339,#272,#273);
#354=AXIS2_PLACEMENT_3D('',#340,#274,#275);
#355=AXIS2_PLACEMENT_3D('',#341,#276,#277);
#356=PLANE('',#342);
#357=PLANE('',#343);
#358=PLANE('',#344);
#359=PLANE('',#345);
#360=PLANE('',#346);
#361=PLANE('',#347);
#362=PLANE('',#348);
#363=PLANE('',#349);
#364=PLANE('',#350);
#365=PLANE('',#351);
#366=PLANE('',#352);
#367=PLANE('',#353);
#368=ADVANCED_FACE('',(#208),#356,.T.);
#369=ADVANCED_FACE('',(#209),#357,.T.);
#370=ADVANCED_FACE('',(#210),#358,.T.);
#371=ADVANCED_FACE('',(#211),#359,.T.);
#372=ADVANCED_FACE('',(#212),#360,.T.);
#373=ADVANCED_FACE('',(#213),#361,.T.);
#374=ADVANCED_FACE('',(#214),#362,.T.);
#375=ADVANCED_FACE('',(#215),#363,.T.);
#376=ADVANCED_FACE('',(#216),#364,.T.);
#377=ADVANCED_FACE('',(#217),#365,.T.);
#378=ADVANCED_FACE('',(#218),#366,.T.);
#379=ADVANCED_FACE('',(#219),#367,.T.);
#380=MANIFOLD_SOLID_BREP('Solid',#25);
#381=SHAPE_REPRESENTATION('RootProduct',(#355),#399);
#382=PRODUCT_DEFINITION_SHAPE('','',#386);
#383=PRODUCT_DEFINITION_SHAPE('','',#387);
#384=PRODUCT_DEFINITION_SHAPE('',$,#13);
#385=PRODUCT_DEFINITION_CONTEXT('part definition',#391,'');
#386=PRODUCT_DEFINITION('','',#388,#385);
#387=PRODUCT_DEFINITION('','',#389,#385);
#388=PRODUCT_DEFINITION_FORMATION('','',#393);
#389=PRODUCT_DEFINITION_FORMATION('','',#394);
#390=APPLICATION_PROTOCOL_DEFINITION('international standard',
'automotive_design',2003,#391);
#391=APPLICATION_CONTEXT(
'Core Data for Automotive Mechanical Design Process');
#392=PRODUCT_CONTEXT('part definition',#391,'');
#393=PRODUCT('Root','Root','',(#392));
#394=PRODUCT('122520T-Sleufmoerprofiel 10 L=1mBOIKON0',
'122520T-Sleufmoerprofiel 10 L=1mBOIKON0','',(#392));
#395=SHAPE_DEFINITION_REPRESENTATION(#382,#381);
#396=SHAPE_DEFINITION_REPRESENTATION(#383,#24);
#397=PRODUCT_RELATED_PRODUCT_CATEGORY('','',(#393,#394));
#398=UNCERTAINTY_MEASURE_WITH_UNIT(LENGTH_MEASURE(0.001),#401,
'DISTANCE_ACCURACY_VALUE',
'Maximum model space distance between geometric entities at asserted co
nnectivities');
#399=(
GEOMETRIC_REPRESENTATION_CONTEXT(3)
GLOBAL_UNCERTAINTY_ASSIGNED_CONTEXT((#398))
GLOBAL_UNIT_ASSIGNED_CONTEXT((#401,#403,#406))
REPRESENTATION_CONTEXT('Default Context','3D')
);
#400=(
GEOMETRIC_REPRESENTATION_CONTEXT(3)
GLOBAL_UNCERTAINTY_ASSIGNED_CONTEXT((#398))
GLOBAL_UNIT_ASSIGNED_CONTEXT((#401,#403,#406))
REPRESENTATION_CONTEXT('Default Context','3D')
);
#401=(
LENGTH_UNIT()
NAMED_UNIT(*)
SI_UNIT(.MILLI.,.METRE.)
);
#402=DIMENSIONAL_EXPONENTS(0.,0.,0.,0.,0.,0.,0.);
#403=(
CONVERSION_BASED_UNIT('degree',#405)
NAMED_UNIT(#402)
PLANE_ANGLE_UNIT()
);
#404=(
NAMED_UNIT(*)
PLANE_ANGLE_UNIT()
SI_UNIT($,.RADIAN.)
);
#405=PLANE_ANGLE_MEASURE_WITH_UNIT(PLANE_ANGLE_MEASURE(0.01745329252),#404);
#406=(
NAMED_UNIT(*)
SI_UNIT($,.STERADIAN.)
SOLID_ANGLE_UNIT()
);
ENDSEC;
END-ISO-10303-21;
