ISO-10303-21;
HEADER;
/* Generated by software containing ST-Developer
 * from STEP Tools, Inc. (www.steptools.com) 
 */
/* OPTION: using custom schema-name function */

FILE_DESCRIPTION(
/* description */ (''),
/* implementation_level */ '2;1');

FILE_NAME(
/* name */ '122600',
/* time_stamp */ '2014-10-06T11:58:16+02:00',
/* author */ (''),
/* organization */ (''),
/* preprocessor_version */ 'ST-DEVELOPER v14',
/* originating_system */ 'HiCAD 2013 1802.4 Build 509',
/* authorisation */ '');

FILE_SCHEMA (('AUTOMOTIVE_DESIGN { 1 0 10303 214 1 1 1 1 }'));
ENDSEC;

DATA;
#10=ITEM_DEFINED_TRANSFORMATION('','',#341,#342);
#11=(
REPRESENTATION_RELATIONSHIP('','',#164,#357)
REPRESENTATION_RELATIONSHIP_WITH_TRANSFORMATION(#10)
SHAPE_REPRESENTATION_RELATIONSHIP()
);
#12=CONTEXT_DEPENDENT_SHAPE_REPRESENTATION(#11,#360);
#13=NEXT_ASSEMBLY_USAGE_OCCURRENCE('122600Sleufmoer vlak 5 - M4BOIKON',
'122600Sleufmoer vlak 5 - M4BOIKON','',#362,#363,$);
#14=DRAUGHTING_PRE_DEFINED_CURVE_FONT('continuous');
#15=DRAUGHTING_PRE_DEFINED_CURVE_FONT('continuous');
#16=DRAUGHTING_PRE_DEFINED_CURVE_FONT('continuous');
#17=DRAUGHTING_PRE_DEFINED_CURVE_FONT('continuous');
#18=DRAUGHTING_PRE_DEFINED_CURVE_FONT('continuous');
#19=DRAUGHTING_PRE_DEFINED_CURVE_FONT('continuous');
#20=DRAUGHTING_PRE_DEFINED_CURVE_FONT('continuous');
#21=DRAUGHTING_PRE_DEFINED_CURVE_FONT('continuous');
#22=DRAUGHTING_PRE_DEFINED_CURVE_FONT('continuous');
#23=DRAUGHTING_PRE_DEFINED_CURVE_FONT('continuous');
#24=DRAUGHTING_PRE_DEFINED_CURVE_FONT('continuous');
#25=DRAUGHTING_PRE_DEFINED_CURVE_FONT('continuous');
#26=DRAUGHTING_PRE_DEFINED_CURVE_FONT('continuous');
#27=DRAUGHTING_PRE_DEFINED_CURVE_FONT('continuous');
#28=DRAUGHTING_PRE_DEFINED_CURVE_FONT('continuous');
#29=DRAUGHTING_PRE_DEFINED_CURVE_FONT('continuous');
#30=DRAUGHTING_PRE_DEFINED_CURVE_FONT('continuous');
#31=DRAUGHTING_PRE_DEFINED_CURVE_FONT('continuous');
#32=DRAUGHTING_PRE_DEFINED_CURVE_FONT('continuous');
#33=DRAUGHTING_PRE_DEFINED_CURVE_FONT('continuous');
#34=DRAUGHTING_PRE_DEFINED_CURVE_FONT('continuous');
#35=DRAUGHTING_PRE_DEFINED_CURVE_FONT('continuous');
#36=DRAUGHTING_PRE_DEFINED_CURVE_FONT('continuous');
#37=DRAUGHTING_PRE_DEFINED_CURVE_FONT('continuous');
#38=DRAUGHTING_PRE_DEFINED_CURVE_FONT('continuous');
#39=DRAUGHTING_PRE_DEFINED_CURVE_FONT('continuous');
#40=DRAUGHTING_PRE_DEFINED_CURVE_FONT('continuous');
#41=DRAUGHTING_PRE_DEFINED_CURVE_FONT('continuous');
#42=CURVE_STYLE(' ',#14,POSITIVE_LENGTH_MEASURE(0.352777777777778),#133);
#43=CURVE_STYLE(' ',#15,POSITIVE_LENGTH_MEASURE(0.352777777777778),#134);
#44=CURVE_STYLE(' ',#16,POSITIVE_LENGTH_MEASURE(0.352777777777778),#135);
#45=CURVE_STYLE(' ',#17,POSITIVE_LENGTH_MEASURE(0.352777777777778),#136);
#46=CURVE_STYLE(' ',#18,POSITIVE_LENGTH_MEASURE(0.352777777777778),#137);
#47=CURVE_STYLE(' ',#19,POSITIVE_LENGTH_MEASURE(0.352777777777778),#138);
#48=CURVE_STYLE(' ',#20,POSITIVE_LENGTH_MEASURE(0.352777777777778),#139);
#49=CURVE_STYLE(' ',#21,POSITIVE_LENGTH_MEASURE(0.352777777777778),#140);
#50=CURVE_STYLE(' ',#22,POSITIVE_LENGTH_MEASURE(0.352777777777778),#141);
#51=CURVE_STYLE(' ',#23,POSITIVE_LENGTH_MEASURE(0.352777777777778),#142);
#52=CURVE_STYLE(' ',#24,POSITIVE_LENGTH_MEASURE(0.352777777777778),#143);
#53=CURVE_STYLE(' ',#25,POSITIVE_LENGTH_MEASURE(0.352777777777778),#144);
#54=CURVE_STYLE(' ',#26,POSITIVE_LENGTH_MEASURE(0.352777777777778),#145);
#55=CURVE_STYLE(' ',#27,POSITIVE_LENGTH_MEASURE(0.352777777777778),#146);
#56=CURVE_STYLE(' ',#28,POSITIVE_LENGTH_MEASURE(0.352777777777778),#147);
#57=CURVE_STYLE(' ',#29,POSITIVE_LENGTH_MEASURE(0.352777777777778),#148);
#58=CURVE_STYLE(' ',#30,POSITIVE_LENGTH_MEASURE(0.352777777777778),#149);
#59=CURVE_STYLE(' ',#31,POSITIVE_LENGTH_MEASURE(0.352777777777778),#150);
#60=CURVE_STYLE(' ',#32,POSITIVE_LENGTH_MEASURE(0.352777777777778),#151);
#61=CURVE_STYLE(' ',#33,POSITIVE_LENGTH_MEASURE(0.352777777777778),#152);
#62=CURVE_STYLE(' ',#34,POSITIVE_LENGTH_MEASURE(0.352777777777778),#153);
#63=CURVE_STYLE(' ',#35,POSITIVE_LENGTH_MEASURE(0.352777777777778),#154);
#64=CURVE_STYLE(' ',#36,POSITIVE_LENGTH_MEASURE(0.352777777777778),#155);
#65=CURVE_STYLE(' ',#37,POSITIVE_LENGTH_MEASURE(0.352777777777778),#156);
#66=CURVE_STYLE(' ',#38,POSITIVE_LENGTH_MEASURE(0.352777777777778),#157);
#67=CURVE_STYLE(' ',#39,POSITIVE_LENGTH_MEASURE(0.352777777777778),#158);
#68=CURVE_STYLE(' ',#40,POSITIVE_LENGTH_MEASURE(0.352777777777778),#159);
#69=CURVE_STYLE(' ',#41,POSITIVE_LENGTH_MEASURE(0.352777777777778),#160);
#70=OVER_RIDING_STYLED_ITEM('Edge Colour',(#99),#231,#161);
#71=OVER_RIDING_STYLED_ITEM('Edge Colour',(#100),#232,#161);
#72=OVER_RIDING_STYLED_ITEM('Edge Colour',(#101),#233,#161);
#73=OVER_RIDING_STYLED_ITEM('Edge Colour',(#102),#234,#161);
#74=OVER_RIDING_STYLED_ITEM('Edge Colour',(#103),#235,#161);
#75=OVER_RIDING_STYLED_ITEM('Edge Colour',(#104),#236,#161);
#76=OVER_RIDING_STYLED_ITEM('Edge Colour',(#105),#237,#161);
#77=OVER_RIDING_STYLED_ITEM('Edge Colour',(#106),#231,#161);
#78=OVER_RIDING_STYLED_ITEM('Edge Colour',(#107),#238,#161);
#79=OVER_RIDING_STYLED_ITEM('Edge Colour',(#108),#239,#161);
#80=OVER_RIDING_STYLED_ITEM('Edge Colour',(#109),#240,#161);
#81=OVER_RIDING_STYLED_ITEM('Edge Colour',(#110),#241,#161);
#82=OVER_RIDING_STYLED_ITEM('Edge Colour',(#111),#236,#161);
#83=OVER_RIDING_STYLED_ITEM('Edge Colour',(#112),#242,#161);
#84=OVER_RIDING_STYLED_ITEM('Edge Colour',(#113),#239,#161);
#85=OVER_RIDING_STYLED_ITEM('Edge Colour',(#114),#238,#161);
#86=OVER_RIDING_STYLED_ITEM('Edge Colour',(#115),#234,#161);
#87=OVER_RIDING_STYLED_ITEM('Edge Colour',(#116),#243,#161);
#88=OVER_RIDING_STYLED_ITEM('Edge Colour',(#117),#240,#161);
#89=OVER_RIDING_STYLED_ITEM('Edge Colour',(#118),#243,#161);
#90=OVER_RIDING_STYLED_ITEM('Edge Colour',(#119),#233,#161);
#91=OVER_RIDING_STYLED_ITEM('Edge Colour',(#120),#244,#161);
#92=OVER_RIDING_STYLED_ITEM('Edge Colour',(#121),#241,#161);
#93=OVER_RIDING_STYLED_ITEM('Edge Colour',(#122),#244,#161);
#94=OVER_RIDING_STYLED_ITEM('Edge Colour',(#123),#232,#161);
#95=OVER_RIDING_STYLED_ITEM('Edge Colour',(#124),#237,#161);
#96=OVER_RIDING_STYLED_ITEM('Edge Colour',(#125),#235,#161);
#97=OVER_RIDING_STYLED_ITEM('Edge Colour',(#126),#242,#161);
#98=PRESENTATION_STYLE_ASSIGNMENT((#127));
#99=PRESENTATION_STYLE_ASSIGNMENT((#42));
#100=PRESENTATION_STYLE_ASSIGNMENT((#43));
#101=PRESENTATION_STYLE_ASSIGNMENT((#44));
#102=PRESENTATION_STYLE_ASSIGNMENT((#45));
#103=PRESENTATION_STYLE_ASSIGNMENT((#46));
#104=PRESENTATION_STYLE_ASSIGNMENT((#47));
#105=PRESENTATION_STYLE_ASSIGNMENT((#48));
#106=PRESENTATION_STYLE_ASSIGNMENT((#49));
#107=PRESENTATION_STYLE_ASSIGNMENT((#50));
#108=PRESENTATION_STYLE_ASSIGNMENT((#51));
#109=PRESENTATION_STYLE_ASSIGNMENT((#52));
#110=PRESENTATION_STYLE_ASSIGNMENT((#53));
#111=PRESENTATION_STYLE_ASSIGNMENT((#54));
#112=PRESENTATION_STYLE_ASSIGNMENT((#55));
#113=PRESENTATION_STYLE_ASSIGNMENT((#56));
#114=PRESENTATION_STYLE_ASSIGNMENT((#57));
#115=PRESENTATION_STYLE_ASSIGNMENT((#58));
#116=PRESENTATION_STYLE_ASSIGNMENT((#59));
#117=PRESENTATION_STYLE_ASSIGNMENT((#60));
#118=PRESENTATION_STYLE_ASSIGNMENT((#61));
#119=PRESENTATION_STYLE_ASSIGNMENT((#62));
#120=PRESENTATION_STYLE_ASSIGNMENT((#63));
#121=PRESENTATION_STYLE_ASSIGNMENT((#64));
#122=PRESENTATION_STYLE_ASSIGNMENT((#65));
#123=PRESENTATION_STYLE_ASSIGNMENT((#66));
#124=PRESENTATION_STYLE_ASSIGNMENT((#67));
#125=PRESENTATION_STYLE_ASSIGNMENT((#68));
#126=PRESENTATION_STYLE_ASSIGNMENT((#69));
#127=SURFACE_STYLE_USAGE(.BOTH.,#128);
#128=SURFACE_SIDE_STYLE('',(#129));
#129=SURFACE_STYLE_FILL_AREA(#130);
#130=FILL_AREA_STYLE('',(#131));
#131=FILL_AREA_STYLE_COLOUR('',#132);
#132=COLOUR_RGB('',0.443136990070343,0.717647016048431,0.807843029499054);
#133=COLOUR_RGB('',0.,0.,0.);
#134=COLOUR_RGB('',0.,0.,0.);
#135=COLOUR_RGB('',0.,0.,0.);
#136=COLOUR_RGB('',0.,0.,0.);
#137=COLOUR_RGB('',0.,0.,0.);
#138=COLOUR_RGB('',0.,0.,0.);
#139=COLOUR_RGB('',0.,0.,0.);
#140=COLOUR_RGB('',0.,0.,0.);
#141=COLOUR_RGB('',0.,0.,0.);
#142=COLOUR_RGB('',0.,0.,0.);
#143=COLOUR_RGB('',0.,0.,0.);
#144=COLOUR_RGB('',0.,0.,0.);
#145=COLOUR_RGB('',0.,0.,0.);
#146=COLOUR_RGB('',0.,0.,0.);
#147=COLOUR_RGB('',0.,0.,0.);
#148=COLOUR_RGB('',0.,0.,0.);
#149=COLOUR_RGB('',0.,0.,0.);
#150=COLOUR_RGB('',0.,0.,0.);
#151=COLOUR_RGB('',0.,0.,0.);
#152=COLOUR_RGB('',0.,0.,0.);
#153=COLOUR_RGB('',0.,0.,0.);
#154=COLOUR_RGB('',0.,0.,0.);
#155=COLOUR_RGB('',0.,0.,0.);
#156=COLOUR_RGB('',0.,0.,0.);
#157=COLOUR_RGB('',0.,0.,0.);
#158=COLOUR_RGB('',0.,0.,0.);
#159=COLOUR_RGB('',0.,0.,0.);
#160=COLOUR_RGB('',0.,0.,0.);
#161=STYLED_ITEM('Solid Colour',(#98),#356);
#162=MECHANICAL_DESIGN_GEOMETRIC_PRESENTATION_REPRESENTATION(
'Container for Styled_item',(#161,#83,#84,#85,#86,#87,#88,#89,#90,#91,#92,
#93,#94,#95,#96,#97,#70,#71,#72,#73,#74,#75,#76,#77,#78,#79,#80,#81,#82),
#375);
#163=PRESENTATION_LAYER_ASSIGNMENT('APPLE','1',(#356));
#164=ADVANCED_BREP_SHAPE_REPRESENTATION('Body',(#356,#341),#376);
#165=CLOSED_SHELL('',(#349,#350,#351,#352,#353,#354,#355));
#166=CYLINDRICAL_SURFACE('',#340,2.);
#167=CIRCLE('',#333,2.);
#168=CIRCLE('',#336,2.);
#169=ORIENTED_EDGE('',*,*,#231,.F.);
#170=ORIENTED_EDGE('',*,*,#232,.F.);
#171=ORIENTED_EDGE('',*,*,#233,.F.);
#172=ORIENTED_EDGE('',*,*,#234,.F.);
#173=ORIENTED_EDGE('',*,*,#235,.F.);
#174=ORIENTED_EDGE('',*,*,#236,.F.);
#175=ORIENTED_EDGE('',*,*,#237,.F.);
#176=ORIENTED_EDGE('',*,*,#231,.T.);
#177=ORIENTED_EDGE('',*,*,#238,.T.);
#178=ORIENTED_EDGE('',*,*,#239,.T.);
#179=ORIENTED_EDGE('',*,*,#240,.T.);
#180=ORIENTED_EDGE('',*,*,#241,.T.);
#181=ORIENTED_EDGE('',*,*,#236,.T.);
#182=ORIENTED_EDGE('',*,*,#242,.F.);
#183=ORIENTED_EDGE('',*,*,#239,.F.);
#184=ORIENTED_EDGE('',*,*,#238,.F.);
#185=ORIENTED_EDGE('',*,*,#234,.T.);
#186=ORIENTED_EDGE('',*,*,#243,.T.);
#187=ORIENTED_EDGE('',*,*,#240,.F.);
#188=ORIENTED_EDGE('',*,*,#243,.F.);
#189=ORIENTED_EDGE('',*,*,#233,.T.);
#190=ORIENTED_EDGE('',*,*,#244,.T.);
#191=ORIENTED_EDGE('',*,*,#241,.F.);
#192=ORIENTED_EDGE('',*,*,#244,.F.);
#193=ORIENTED_EDGE('',*,*,#232,.T.);
#194=ORIENTED_EDGE('',*,*,#237,.T.);
#195=ORIENTED_EDGE('',*,*,#235,.F.);
#196=ORIENTED_EDGE('',*,*,#242,.F.);
#197=VECTOR('',#267,1.);
#198=VECTOR('',#268,1.);
#199=VECTOR('',#269,1.);
#200=VECTOR('',#270,1.);
#201=VECTOR('',#275,1.);
#202=VECTOR('',#276,1.);
#203=VECTOR('',#277,1.);
#204=VECTOR('',#280,1.);
#205=VECTOR('',#281,1.);
#206=VECTOR('',#282,1.);
#207=VECTOR('',#287,1.);
#208=VECTOR('',#290,1.);
#209=LINE('',#302,#197);
#210=LINE('',#304,#198);
#211=LINE('',#306,#199);
#212=LINE('',#307,#200);
#213=LINE('',#313,#201);
#214=LINE('',#314,#202);
#215=LINE('',#315,#203);
#216=LINE('',#318,#204);
#217=LINE('',#320,#205);
#218=LINE('',#321,#206);
#219=LINE('',#325,#207);
#220=LINE('',#327,#208);
#221=VERTEX_POINT('',#300);
#222=VERTEX_POINT('',#301);
#223=VERTEX_POINT('',#303);
#224=VERTEX_POINT('',#305);
#225=VERTEX_POINT('',#308);
#226=VERTEX_POINT('',#311);
#227=VERTEX_POINT('',#312);
#228=VERTEX_POINT('',#317);
#229=VERTEX_POINT('',#319);
#230=VERTEX_POINT('',#322);
#231=EDGE_CURVE('',#221,#222,#209,.T.);
#232=EDGE_CURVE('',#223,#221,#210,.T.);
#233=EDGE_CURVE('',#224,#223,#211,.T.);
#234=EDGE_CURVE('',#222,#224,#212,.T.);
#235=EDGE_CURVE('',#225,#225,#167,.T.);
#236=EDGE_CURVE('',#226,#227,#213,.T.);
#237=EDGE_CURVE('',#221,#226,#214,.T.);
#238=EDGE_CURVE('',#222,#227,#215,.T.);
#239=EDGE_CURVE('',#227,#228,#216,.T.);
#240=EDGE_CURVE('',#228,#229,#217,.T.);
#241=EDGE_CURVE('',#229,#226,#218,.T.);
#242=EDGE_CURVE('',#230,#230,#168,.T.);
#243=EDGE_CURVE('',#224,#228,#219,.T.);
#244=EDGE_CURVE('',#223,#229,#220,.T.);
#245=EDGE_LOOP('',(#169,#170,#171,#172));
#246=EDGE_LOOP('',(#173));
#247=EDGE_LOOP('',(#174,#175,#176,#177));
#248=EDGE_LOOP('',(#178,#179,#180,#181));
#249=EDGE_LOOP('',(#182));
#250=EDGE_LOOP('',(#183,#184,#185,#186));
#251=EDGE_LOOP('',(#187,#188,#189,#190));
#252=EDGE_LOOP('',(#191,#192,#193,#194));
#253=EDGE_LOOP('',(#195));
#254=EDGE_LOOP('',(#196));
#255=FACE_BOUND('',#245,.T.);
#256=FACE_BOUND('',#246,.T.);
#257=FACE_BOUND('',#247,.T.);
#258=FACE_BOUND('',#248,.T.);
#259=FACE_BOUND('',#249,.T.);
#260=FACE_BOUND('',#250,.T.);
#261=FACE_BOUND('',#251,.T.);
#262=FACE_BOUND('',#252,.T.);
#263=FACE_BOUND('',#253,.F.);
#264=FACE_BOUND('',#254,.F.);
#265=DIRECTION('',(0.,0.,-1.));
#266=DIRECTION('',(0.,1.,0.));
#267=DIRECTION('',(0.,9.,0.));
#268=DIRECTION('',(14.,0.,0.));
#269=DIRECTION('',(0.,-9.,0.));
#270=DIRECTION('',(-14.,0.,0.));
#271=DIRECTION('',(0.,0.,-1.));
#272=DIRECTION('',(0.,-2.,0.));
#273=DIRECTION('',(1.,0.,0.));
#274=DIRECTION('',(0.,-1.,0.));
#275=DIRECTION('',(0.,9.,0.));
#276=DIRECTION('',(0.,0.,2.5));
#277=DIRECTION('',(0.,0.,2.5));
#278=DIRECTION('',(0.,0.,1.));
#279=DIRECTION('',(0.,-1.,0.));
#280=DIRECTION('',(-14.,0.,0.));
#281=DIRECTION('',(0.,-9.,0.));
#282=DIRECTION('',(14.,0.,0.));
#283=DIRECTION('',(0.,0.,1.));
#284=DIRECTION('',(0.,2.,0.));
#285=DIRECTION('',(0.,1.,0.));
#286=DIRECTION('',(1.,0.,0.));
#287=DIRECTION('',(0.,0.,2.5));
#288=DIRECTION('',(-1.,0.,0.));
#289=DIRECTION('',(0.,1.,0.));
#290=DIRECTION('',(0.,0.,2.5));
#291=DIRECTION('',(0.,-1.,0.));
#292=DIRECTION('',(-1.,0.,0.));
#293=DIRECTION('',(0.,0.,-1.));
#294=DIRECTION('',(0.,-1.,0.));
#295=DIRECTION('',(0.,0.,1.));
#296=DIRECTION('',(1.,0.,0.));
#297=DIRECTION('',(0.,0.,1.));
#298=DIRECTION('',(1.,0.,0.));
#299=CARTESIAN_POINT('',(14.,0.,0.));
#300=CARTESIAN_POINT('',(14.,0.,0.));
#301=CARTESIAN_POINT('',(14.,9.,0.));
#302=CARTESIAN_POINT('',(14.,0.,0.));
#303=CARTESIAN_POINT('',(0.,0.,0.));
#304=CARTESIAN_POINT('',(0.,0.,0.));
#305=CARTESIAN_POINT('',(0.,9.,0.));
#306=CARTESIAN_POINT('',(0.,9.,0.));
#307=CARTESIAN_POINT('',(14.,9.,0.));
#308=CARTESIAN_POINT('',(7.,2.5,0.));
#309=CARTESIAN_POINT('',(7.,4.5,0.));
#310=CARTESIAN_POINT('',(14.,0.,2.5));
#311=CARTESIAN_POINT('',(14.,0.,2.5));
#312=CARTESIAN_POINT('',(14.,9.,2.5));
#313=CARTESIAN_POINT('',(14.,0.,2.5));
#314=CARTESIAN_POINT('',(14.,0.,0.));
#315=CARTESIAN_POINT('',(14.,9.,0.));
#316=CARTESIAN_POINT('',(14.,9.,2.5));
#317=CARTESIAN_POINT('',(0.,9.,2.5));
#318=CARTESIAN_POINT('',(14.,9.,2.5));
#319=CARTESIAN_POINT('',(0.,0.,2.5));
#320=CARTESIAN_POINT('',(0.,9.,2.5));
#321=CARTESIAN_POINT('',(0.,0.,2.5));
#322=CARTESIAN_POINT('',(7.,6.5,2.5));
#323=CARTESIAN_POINT('',(7.,4.5,2.5));
#324=CARTESIAN_POINT('',(14.,9.,2.5));
#325=CARTESIAN_POINT('',(0.,9.,0.));
#326=CARTESIAN_POINT('',(0.,9.,2.5));
#327=CARTESIAN_POINT('',(0.,0.,0.));
#328=CARTESIAN_POINT('',(0.,0.,2.5));
#329=CARTESIAN_POINT('',(7.,4.5,2.5));
#330=CARTESIAN_POINT('',(0.,0.,0.));
#331=CARTESIAN_POINT('',(120.983973552025,64.7223078762428,40.6576051219927));
#332=AXIS2_PLACEMENT_3D('',#299,#265,#266);
#333=AXIS2_PLACEMENT_3D('',#309,#271,#272);
#334=AXIS2_PLACEMENT_3D('',#310,#273,#274);
#335=AXIS2_PLACEMENT_3D('',#316,#278,#279);
#336=AXIS2_PLACEMENT_3D('',#323,#283,#284);
#337=AXIS2_PLACEMENT_3D('',#324,#285,#286);
#338=AXIS2_PLACEMENT_3D('',#326,#288,#289);
#339=AXIS2_PLACEMENT_3D('',#328,#291,#292);
#340=AXIS2_PLACEMENT_3D('',#329,#293,#294);
#341=AXIS2_PLACEMENT_3D('',#330,#295,#296);
#342=AXIS2_PLACEMENT_3D('',#331,#297,#298);
#343=PLANE('',#332);
#344=PLANE('',#334);
#345=PLANE('',#335);
#346=PLANE('',#337);
#347=PLANE('',#338);
#348=PLANE('',#339);
#349=ADVANCED_FACE('',(#255,#256),#343,.T.);
#350=ADVANCED_FACE('',(#257),#344,.T.);
#351=ADVANCED_FACE('',(#258,#259),#345,.T.);
#352=ADVANCED_FACE('',(#260),#346,.T.);
#353=ADVANCED_FACE('',(#261),#347,.T.);
#354=ADVANCED_FACE('',(#262),#348,.T.);
#355=ADVANCED_FACE('',(#263,#264),#166,.F.);
#356=MANIFOLD_SOLID_BREP('Solid',#165);
#357=SHAPE_REPRESENTATION('RootProduct',(#342),#375);
#358=PRODUCT_DEFINITION_SHAPE('','',#362);
#359=PRODUCT_DEFINITION_SHAPE('','',#363);
#360=PRODUCT_DEFINITION_SHAPE('',$,#13);
#361=PRODUCT_DEFINITION_CONTEXT('part definition',#367,'');
#362=PRODUCT_DEFINITION('','',#364,#361);
#363=PRODUCT_DEFINITION('','',#365,#361);
#364=PRODUCT_DEFINITION_FORMATION('','',#369);
#365=PRODUCT_DEFINITION_FORMATION('','',#370);
#366=APPLICATION_PROTOCOL_DEFINITION('international standard',
'automotive_design',2003,#367);
#367=APPLICATION_CONTEXT(
'Core Data for Automotive Mechanical Design Process');
#368=PRODUCT_CONTEXT('part definition',#367,'');
#369=PRODUCT('Root','Root','',(#368));
#370=PRODUCT('122600Sleufmoer vlak 5 - M4BOIKON',
'122600Sleufmoer vlak 5 - M4BOIKON','',(#368));
#371=SHAPE_DEFINITION_REPRESENTATION(#358,#357);
#372=SHAPE_DEFINITION_REPRESENTATION(#359,#164);
#373=PRODUCT_RELATED_PRODUCT_CATEGORY('','',(#369,#370));
#374=UNCERTAINTY_MEASURE_WITH_UNIT(LENGTH_MEASURE(0.001),#377,
'DISTANCE_ACCURACY_VALUE',
'Maximum model space distance between geometric entities at asserted co
nnectivities');
#375=(
GEOMETRIC_REPRESENTATION_CONTEXT(3)
GLOBAL_UNCERTAINTY_ASSIGNED_CONTEXT((#374))
GLOBAL_UNIT_ASSIGNED_CONTEXT((#377,#379,#382))
REPRESENTATION_CONTEXT('Default Context','3D')
);
#376=(
GEOMETRIC_REPRESENTATION_CONTEXT(3)
GLOBAL_UNCERTAINTY_ASSIGNED_CONTEXT((#374))
GLOBAL_UNIT_ASSIGNED_CONTEXT((#377,#379,#382))
REPRESENTATION_CONTEXT('Default Context','3D')
);
#377=(
LENGTH_UNIT()
NAMED_UNIT(*)
SI_UNIT(.MILLI.,.METRE.)
);
#378=DIMENSIONAL_EXPONENTS(0.,0.,0.,0.,0.,0.,0.);
#379=(
CONVERSION_BASED_UNIT('degree',#381)
NAMED_UNIT(#378)
PLANE_ANGLE_UNIT()
);
#380=(
NAMED_UNIT(*)
PLANE_ANGLE_UNIT()
SI_UNIT($,.RADIAN.)
);
#381=PLANE_ANGLE_MEASURE_WITH_UNIT(PLANE_ANGLE_MEASURE(0.01745329252),#380);
#382=(
NAMED_UNIT(*)
SI_UNIT($,.STERADIAN.)
SOLID_ANGLE_UNIT()
);
ENDSEC;
END-ISO-10303-21;
