ISO-10303-21;
HEADER;
/* Generated by software containing ST-Developer
 * from STEP Tools, Inc. (www.steptools.com) 
 */
/* OPTION: using custom schema-name function */

FILE_DESCRIPTION(
/* description */ (''),
/* implementation_level */ '2;1');

FILE_NAME(
/* name */ '122620',
/* time_stamp */ '2014-10-06T11:59:46+02:00',
/* author */ (''),
/* organization */ (''),
/* preprocessor_version */ 'ST-DEVELOPER v14',
/* originating_system */ 'HiCAD 2013 1802.4 Build 509',
/* authorisation */ '');

FILE_SCHEMA (('AUTOMOTIVE_DESIGN { 1 0 10303 214 1 1 1 1 }'));
ENDSEC;

DATA;
#10=ITEM_DEFINED_TRANSFORMATION('','',#463,#464);
#11=(
REPRESENTATION_RELATIONSHIP('','',#224,#483)
REPRESENTATION_RELATIONSHIP_WITH_TRANSFORMATION(#10)
SHAPE_REPRESENTATION_RELATIONSHIP()
);
#12=CONTEXT_DEPENDENT_SHAPE_REPRESENTATION(#11,#486);
#13=NEXT_ASSEMBLY_USAGE_OCCURRENCE(
'122620Sleufmoer vlak 8 en 10 - M6BOIKON',
'122620Sleufmoer vlak 8 en 10 - M6BOIKON','',#488,#489,$);
#14=DRAUGHTING_PRE_DEFINED_CURVE_FONT('continuous');
#15=DRAUGHTING_PRE_DEFINED_CURVE_FONT('continuous');
#16=DRAUGHTING_PRE_DEFINED_CURVE_FONT('continuous');
#17=DRAUGHTING_PRE_DEFINED_CURVE_FONT('continuous');
#18=DRAUGHTING_PRE_DEFINED_CURVE_FONT('continuous');
#19=DRAUGHTING_PRE_DEFINED_CURVE_FONT('continuous');
#20=DRAUGHTING_PRE_DEFINED_CURVE_FONT('continuous');
#21=DRAUGHTING_PRE_DEFINED_CURVE_FONT('continuous');
#22=DRAUGHTING_PRE_DEFINED_CURVE_FONT('continuous');
#23=DRAUGHTING_PRE_DEFINED_CURVE_FONT('continuous');
#24=DRAUGHTING_PRE_DEFINED_CURVE_FONT('continuous');
#25=DRAUGHTING_PRE_DEFINED_CURVE_FONT('continuous');
#26=DRAUGHTING_PRE_DEFINED_CURVE_FONT('continuous');
#27=DRAUGHTING_PRE_DEFINED_CURVE_FONT('continuous');
#28=DRAUGHTING_PRE_DEFINED_CURVE_FONT('continuous');
#29=DRAUGHTING_PRE_DEFINED_CURVE_FONT('continuous');
#30=DRAUGHTING_PRE_DEFINED_CURVE_FONT('continuous');
#31=DRAUGHTING_PRE_DEFINED_CURVE_FONT('continuous');
#32=DRAUGHTING_PRE_DEFINED_CURVE_FONT('continuous');
#33=DRAUGHTING_PRE_DEFINED_CURVE_FONT('continuous');
#34=DRAUGHTING_PRE_DEFINED_CURVE_FONT('continuous');
#35=DRAUGHTING_PRE_DEFINED_CURVE_FONT('continuous');
#36=DRAUGHTING_PRE_DEFINED_CURVE_FONT('continuous');
#37=DRAUGHTING_PRE_DEFINED_CURVE_FONT('continuous');
#38=DRAUGHTING_PRE_DEFINED_CURVE_FONT('continuous');
#39=DRAUGHTING_PRE_DEFINED_CURVE_FONT('continuous');
#40=DRAUGHTING_PRE_DEFINED_CURVE_FONT('continuous');
#41=DRAUGHTING_PRE_DEFINED_CURVE_FONT('continuous');
#42=DRAUGHTING_PRE_DEFINED_CURVE_FONT('continuous');
#43=DRAUGHTING_PRE_DEFINED_CURVE_FONT('continuous');
#44=DRAUGHTING_PRE_DEFINED_CURVE_FONT('continuous');
#45=DRAUGHTING_PRE_DEFINED_CURVE_FONT('continuous');
#46=DRAUGHTING_PRE_DEFINED_CURVE_FONT('continuous');
#47=DRAUGHTING_PRE_DEFINED_CURVE_FONT('continuous');
#48=DRAUGHTING_PRE_DEFINED_CURVE_FONT('continuous');
#49=DRAUGHTING_PRE_DEFINED_CURVE_FONT('continuous');
#50=DRAUGHTING_PRE_DEFINED_CURVE_FONT('continuous');
#51=DRAUGHTING_PRE_DEFINED_CURVE_FONT('continuous');
#52=DRAUGHTING_PRE_DEFINED_CURVE_FONT('continuous');
#53=DRAUGHTING_PRE_DEFINED_CURVE_FONT('continuous');
#54=CURVE_STYLE(' ',#14,POSITIVE_LENGTH_MEASURE(0.352777777777778),#181);
#55=CURVE_STYLE(' ',#15,POSITIVE_LENGTH_MEASURE(0.352777777777778),#182);
#56=CURVE_STYLE(' ',#16,POSITIVE_LENGTH_MEASURE(0.352777777777778),#183);
#57=CURVE_STYLE(' ',#17,POSITIVE_LENGTH_MEASURE(0.352777777777778),#184);
#58=CURVE_STYLE(' ',#18,POSITIVE_LENGTH_MEASURE(0.352777777777778),#185);
#59=CURVE_STYLE(' ',#19,POSITIVE_LENGTH_MEASURE(0.352777777777778),#186);
#60=CURVE_STYLE(' ',#20,POSITIVE_LENGTH_MEASURE(0.352777777777778),#187);
#61=CURVE_STYLE(' ',#21,POSITIVE_LENGTH_MEASURE(0.352777777777778),#188);
#62=CURVE_STYLE(' ',#22,POSITIVE_LENGTH_MEASURE(0.352777777777778),#189);
#63=CURVE_STYLE(' ',#23,POSITIVE_LENGTH_MEASURE(0.352777777777778),#190);
#64=CURVE_STYLE(' ',#24,POSITIVE_LENGTH_MEASURE(0.352777777777778),#191);
#65=CURVE_STYLE(' ',#25,POSITIVE_LENGTH_MEASURE(0.352777777777778),#192);
#66=CURVE_STYLE(' ',#26,POSITIVE_LENGTH_MEASURE(0.352777777777778),#193);
#67=CURVE_STYLE(' ',#27,POSITIVE_LENGTH_MEASURE(0.352777777777778),#194);
#68=CURVE_STYLE(' ',#28,POSITIVE_LENGTH_MEASURE(0.352777777777778),#195);
#69=CURVE_STYLE(' ',#29,POSITIVE_LENGTH_MEASURE(0.352777777777778),#196);
#70=CURVE_STYLE(' ',#30,POSITIVE_LENGTH_MEASURE(0.352777777777778),#197);
#71=CURVE_STYLE(' ',#31,POSITIVE_LENGTH_MEASURE(0.352777777777778),#198);
#72=CURVE_STYLE(' ',#32,POSITIVE_LENGTH_MEASURE(0.352777777777778),#199);
#73=CURVE_STYLE(' ',#33,POSITIVE_LENGTH_MEASURE(0.352777777777778),#200);
#74=CURVE_STYLE(' ',#34,POSITIVE_LENGTH_MEASURE(0.352777777777778),#201);
#75=CURVE_STYLE(' ',#35,POSITIVE_LENGTH_MEASURE(0.352777777777778),#202);
#76=CURVE_STYLE(' ',#36,POSITIVE_LENGTH_MEASURE(0.352777777777778),#203);
#77=CURVE_STYLE(' ',#37,POSITIVE_LENGTH_MEASURE(0.352777777777778),#204);
#78=CURVE_STYLE(' ',#38,POSITIVE_LENGTH_MEASURE(0.352777777777778),#205);
#79=CURVE_STYLE(' ',#39,POSITIVE_LENGTH_MEASURE(0.352777777777778),#206);
#80=CURVE_STYLE(' ',#40,POSITIVE_LENGTH_MEASURE(0.352777777777778),#207);
#81=CURVE_STYLE(' ',#41,POSITIVE_LENGTH_MEASURE(0.352777777777778),#208);
#82=CURVE_STYLE(' ',#42,POSITIVE_LENGTH_MEASURE(0.352777777777778),#209);
#83=CURVE_STYLE(' ',#43,POSITIVE_LENGTH_MEASURE(0.352777777777778),#210);
#84=CURVE_STYLE(' ',#44,POSITIVE_LENGTH_MEASURE(0.352777777777778),#211);
#85=CURVE_STYLE(' ',#45,POSITIVE_LENGTH_MEASURE(0.352777777777778),#212);
#86=CURVE_STYLE(' ',#46,POSITIVE_LENGTH_MEASURE(0.352777777777778),#213);
#87=CURVE_STYLE(' ',#47,POSITIVE_LENGTH_MEASURE(0.352777777777778),#214);
#88=CURVE_STYLE(' ',#48,POSITIVE_LENGTH_MEASURE(0.352777777777778),#215);
#89=CURVE_STYLE(' ',#49,POSITIVE_LENGTH_MEASURE(0.352777777777778),#216);
#90=CURVE_STYLE(' ',#50,POSITIVE_LENGTH_MEASURE(0.352777777777778),#217);
#91=CURVE_STYLE(' ',#51,POSITIVE_LENGTH_MEASURE(0.352777777777778),#218);
#92=CURVE_STYLE(' ',#52,POSITIVE_LENGTH_MEASURE(0.352777777777778),#219);
#93=CURVE_STYLE(' ',#53,POSITIVE_LENGTH_MEASURE(0.352777777777778),#220);
#94=OVER_RIDING_STYLED_ITEM('Edge Colour',(#135),#319,#221);
#95=OVER_RIDING_STYLED_ITEM('Edge Colour',(#136),#320,#221);
#96=OVER_RIDING_STYLED_ITEM('Edge Colour',(#137),#321,#221);
#97=OVER_RIDING_STYLED_ITEM('Edge Colour',(#138),#322,#221);
#98=OVER_RIDING_STYLED_ITEM('Edge Colour',(#139),#323,#221);
#99=OVER_RIDING_STYLED_ITEM('Edge Colour',(#140),#324,#221);
#100=OVER_RIDING_STYLED_ITEM('Edge Colour',(#141),#319,#221);
#101=OVER_RIDING_STYLED_ITEM('Edge Colour',(#142),#325,#221);
#102=OVER_RIDING_STYLED_ITEM('Edge Colour',(#143),#326,#221);
#103=OVER_RIDING_STYLED_ITEM('Edge Colour',(#144),#327,#221);
#104=OVER_RIDING_STYLED_ITEM('Edge Colour',(#145),#328,#221);
#105=OVER_RIDING_STYLED_ITEM('Edge Colour',(#146),#320,#221);
#106=OVER_RIDING_STYLED_ITEM('Edge Colour',(#147),#324,#221);
#107=OVER_RIDING_STYLED_ITEM('Edge Colour',(#148),#329,#221);
#108=OVER_RIDING_STYLED_ITEM('Edge Colour',(#149),#330,#221);
#109=OVER_RIDING_STYLED_ITEM('Edge Colour',(#150),#327,#221);
#110=OVER_RIDING_STYLED_ITEM('Edge Colour',(#151),#331,#221);
#111=OVER_RIDING_STYLED_ITEM('Edge Colour',(#152),#332,#221);
#112=OVER_RIDING_STYLED_ITEM('Edge Colour',(#153),#333,#221);
#113=OVER_RIDING_STYLED_ITEM('Edge Colour',(#154),#331,#221);
#114=OVER_RIDING_STYLED_ITEM('Edge Colour',(#155),#330,#221);
#115=OVER_RIDING_STYLED_ITEM('Edge Colour',(#156),#334,#221);
#116=OVER_RIDING_STYLED_ITEM('Edge Colour',(#157),#335,#221);
#117=OVER_RIDING_STYLED_ITEM('Edge Colour',(#158),#336,#221);
#118=OVER_RIDING_STYLED_ITEM('Edge Colour',(#159),#329,#221);
#119=OVER_RIDING_STYLED_ITEM('Edge Colour',(#160),#326,#221);
#120=OVER_RIDING_STYLED_ITEM('Edge Colour',(#161),#337,#221);
#121=OVER_RIDING_STYLED_ITEM('Edge Colour',(#162),#334,#221);
#122=OVER_RIDING_STYLED_ITEM('Edge Colour',(#163),#332,#221);
#123=OVER_RIDING_STYLED_ITEM('Edge Colour',(#164),#335,#221);
#124=OVER_RIDING_STYLED_ITEM('Edge Colour',(#165),#337,#221);
#125=OVER_RIDING_STYLED_ITEM('Edge Colour',(#166),#325,#221);
#126=OVER_RIDING_STYLED_ITEM('Edge Colour',(#167),#322,#221);
#127=OVER_RIDING_STYLED_ITEM('Edge Colour',(#168),#338,#221);
#128=OVER_RIDING_STYLED_ITEM('Edge Colour',(#169),#328,#221);
#129=OVER_RIDING_STYLED_ITEM('Edge Colour',(#170),#333,#221);
#130=OVER_RIDING_STYLED_ITEM('Edge Colour',(#171),#338,#221);
#131=OVER_RIDING_STYLED_ITEM('Edge Colour',(#172),#321,#221);
#132=OVER_RIDING_STYLED_ITEM('Edge Colour',(#173),#323,#221);
#133=OVER_RIDING_STYLED_ITEM('Edge Colour',(#174),#336,#221);
#134=PRESENTATION_STYLE_ASSIGNMENT((#175));
#135=PRESENTATION_STYLE_ASSIGNMENT((#54));
#136=PRESENTATION_STYLE_ASSIGNMENT((#55));
#137=PRESENTATION_STYLE_ASSIGNMENT((#56));
#138=PRESENTATION_STYLE_ASSIGNMENT((#57));
#139=PRESENTATION_STYLE_ASSIGNMENT((#58));
#140=PRESENTATION_STYLE_ASSIGNMENT((#59));
#141=PRESENTATION_STYLE_ASSIGNMENT((#60));
#142=PRESENTATION_STYLE_ASSIGNMENT((#61));
#143=PRESENTATION_STYLE_ASSIGNMENT((#62));
#144=PRESENTATION_STYLE_ASSIGNMENT((#63));
#145=PRESENTATION_STYLE_ASSIGNMENT((#64));
#146=PRESENTATION_STYLE_ASSIGNMENT((#65));
#147=PRESENTATION_STYLE_ASSIGNMENT((#66));
#148=PRESENTATION_STYLE_ASSIGNMENT((#67));
#149=PRESENTATION_STYLE_ASSIGNMENT((#68));
#150=PRESENTATION_STYLE_ASSIGNMENT((#69));
#151=PRESENTATION_STYLE_ASSIGNMENT((#70));
#152=PRESENTATION_STYLE_ASSIGNMENT((#71));
#153=PRESENTATION_STYLE_ASSIGNMENT((#72));
#154=PRESENTATION_STYLE_ASSIGNMENT((#73));
#155=PRESENTATION_STYLE_ASSIGNMENT((#74));
#156=PRESENTATION_STYLE_ASSIGNMENT((#75));
#157=PRESENTATION_STYLE_ASSIGNMENT((#76));
#158=PRESENTATION_STYLE_ASSIGNMENT((#77));
#159=PRESENTATION_STYLE_ASSIGNMENT((#78));
#160=PRESENTATION_STYLE_ASSIGNMENT((#79));
#161=PRESENTATION_STYLE_ASSIGNMENT((#80));
#162=PRESENTATION_STYLE_ASSIGNMENT((#81));
#163=PRESENTATION_STYLE_ASSIGNMENT((#82));
#164=PRESENTATION_STYLE_ASSIGNMENT((#83));
#165=PRESENTATION_STYLE_ASSIGNMENT((#84));
#166=PRESENTATION_STYLE_ASSIGNMENT((#85));
#167=PRESENTATION_STYLE_ASSIGNMENT((#86));
#168=PRESENTATION_STYLE_ASSIGNMENT((#87));
#169=PRESENTATION_STYLE_ASSIGNMENT((#88));
#170=PRESENTATION_STYLE_ASSIGNMENT((#89));
#171=PRESENTATION_STYLE_ASSIGNMENT((#90));
#172=PRESENTATION_STYLE_ASSIGNMENT((#91));
#173=PRESENTATION_STYLE_ASSIGNMENT((#92));
#174=PRESENTATION_STYLE_ASSIGNMENT((#93));
#175=SURFACE_STYLE_USAGE(.BOTH.,#176);
#176=SURFACE_SIDE_STYLE('',(#177));
#177=SURFACE_STYLE_FILL_AREA(#178);
#178=FILL_AREA_STYLE('',(#179));
#179=FILL_AREA_STYLE_COLOUR('',#180);
#180=COLOUR_RGB('',0.443136990070343,0.717647016048431,0.807843029499054);
#181=COLOUR_RGB('',0.,0.,0.);
#182=COLOUR_RGB('',0.,0.,0.);
#183=COLOUR_RGB('',0.,0.,0.);
#184=COLOUR_RGB('',0.,0.,0.);
#185=COLOUR_RGB('',0.,0.,0.);
#186=COLOUR_RGB('',0.,0.,0.);
#187=COLOUR_RGB('',0.,0.,0.);
#188=COLOUR_RGB('',0.,0.,0.);
#189=COLOUR_RGB('',0.,0.,0.);
#190=COLOUR_RGB('',0.,0.,0.);
#191=COLOUR_RGB('',0.,0.,0.);
#192=COLOUR_RGB('',0.,0.,0.);
#193=COLOUR_RGB('',0.,0.,0.);
#194=COLOUR_RGB('',0.,0.,0.);
#195=COLOUR_RGB('',0.,0.,0.);
#196=COLOUR_RGB('',0.,0.,0.);
#197=COLOUR_RGB('',0.,0.,0.);
#198=COLOUR_RGB('',0.,0.,0.);
#199=COLOUR_RGB('',0.,0.,0.);
#200=COLOUR_RGB('',0.,0.,0.);
#201=COLOUR_RGB('',0.,0.,0.);
#202=COLOUR_RGB('',0.,0.,0.);
#203=COLOUR_RGB('',0.,0.,0.);
#204=COLOUR_RGB('',0.,0.,0.);
#205=COLOUR_RGB('',0.,0.,0.);
#206=COLOUR_RGB('',0.,0.,0.);
#207=COLOUR_RGB('',0.,0.,0.);
#208=COLOUR_RGB('',0.,0.,0.);
#209=COLOUR_RGB('',0.,0.,0.);
#210=COLOUR_RGB('',0.,0.,0.);
#211=COLOUR_RGB('',0.,0.,0.);
#212=COLOUR_RGB('',0.,0.,0.);
#213=COLOUR_RGB('',0.,0.,0.);
#214=COLOUR_RGB('',0.,0.,0.);
#215=COLOUR_RGB('',0.,0.,0.);
#216=COLOUR_RGB('',0.,0.,0.);
#217=COLOUR_RGB('',0.,0.,0.);
#218=COLOUR_RGB('',0.,0.,0.);
#219=COLOUR_RGB('',0.,0.,0.);
#220=COLOUR_RGB('',0.,0.,0.);
#221=STYLED_ITEM('Solid Colour',(#134),#482);
#222=MECHANICAL_DESIGN_GEOMETRIC_PRESENTATION_REPRESENTATION(
'Container for Styled_item',(#221,#120,#121,#122,#123,#124,#125,#126,#127,
#128,#129,#130,#131,#132,#133,#94,#95,#96,#97,#98,#99,#100,#101,#102,#103,
#104,#105,#106,#107,#108,#109,#110,#111,#112,#113,#114,#115,#116,#117,#118,
#119),#501);
#223=PRESENTATION_LAYER_ASSIGNMENT('APPLE','1',(#482));
#224=ADVANCED_BREP_SHAPE_REPRESENTATION('Body',(#482,#463),#502);
#225=CLOSED_SHELL('',(#473,#474,#475,#476,#477,#478,#479,#480,#481));
#226=CYLINDRICAL_SURFACE('',#462,3.);
#227=CIRCLE('',#453,3.);
#228=CIRCLE('',#458,3.);
#229=ORIENTED_EDGE('',*,*,#319,.T.);
#230=ORIENTED_EDGE('',*,*,#320,.T.);
#231=ORIENTED_EDGE('',*,*,#321,.F.);
#232=ORIENTED_EDGE('',*,*,#322,.T.);
#233=ORIENTED_EDGE('',*,*,#323,.F.);
#234=ORIENTED_EDGE('',*,*,#324,.F.);
#235=ORIENTED_EDGE('',*,*,#319,.F.);
#236=ORIENTED_EDGE('',*,*,#325,.F.);
#237=ORIENTED_EDGE('',*,*,#326,.T.);
#238=ORIENTED_EDGE('',*,*,#327,.F.);
#239=ORIENTED_EDGE('',*,*,#328,.F.);
#240=ORIENTED_EDGE('',*,*,#320,.F.);
#241=ORIENTED_EDGE('',*,*,#324,.T.);
#242=ORIENTED_EDGE('',*,*,#329,.F.);
#243=ORIENTED_EDGE('',*,*,#330,.F.);
#244=ORIENTED_EDGE('',*,*,#327,.T.);
#245=ORIENTED_EDGE('',*,*,#331,.F.);
#246=ORIENTED_EDGE('',*,*,#332,.T.);
#247=ORIENTED_EDGE('',*,*,#333,.T.);
#248=ORIENTED_EDGE('',*,*,#331,.T.);
#249=ORIENTED_EDGE('',*,*,#330,.T.);
#250=ORIENTED_EDGE('',*,*,#334,.F.);
#251=ORIENTED_EDGE('',*,*,#335,.T.);
#252=ORIENTED_EDGE('',*,*,#336,.F.);
#253=ORIENTED_EDGE('',*,*,#329,.T.);
#254=ORIENTED_EDGE('',*,*,#326,.F.);
#255=ORIENTED_EDGE('',*,*,#337,.T.);
#256=ORIENTED_EDGE('',*,*,#334,.T.);
#257=ORIENTED_EDGE('',*,*,#332,.F.);
#258=ORIENTED_EDGE('',*,*,#335,.F.);
#259=ORIENTED_EDGE('',*,*,#337,.F.);
#260=ORIENTED_EDGE('',*,*,#325,.T.);
#261=ORIENTED_EDGE('',*,*,#322,.F.);
#262=ORIENTED_EDGE('',*,*,#338,.F.);
#263=ORIENTED_EDGE('',*,*,#328,.T.);
#264=ORIENTED_EDGE('',*,*,#333,.F.);
#265=ORIENTED_EDGE('',*,*,#338,.T.);
#266=ORIENTED_EDGE('',*,*,#321,.T.);
#267=ORIENTED_EDGE('',*,*,#323,.F.);
#268=ORIENTED_EDGE('',*,*,#336,.F.);
#269=VECTOR('',#365,1.);
#270=VECTOR('',#366,1.);
#271=VECTOR('',#367,1.);
#272=VECTOR('',#368,1.);
#273=VECTOR('',#373,1.);
#274=VECTOR('',#374,1.);
#275=VECTOR('',#375,1.);
#276=VECTOR('',#378,1.);
#277=VECTOR('',#379,1.);
#278=VECTOR('',#380,1.);
#279=VECTOR('',#381,1.);
#280=VECTOR('',#384,1.);
#281=VECTOR('',#385,1.);
#282=VECTOR('',#386,1.);
#283=VECTOR('',#389,1.);
#284=VECTOR('',#390,1.);
#285=VECTOR('',#395,1.);
#286=VECTOR('',#398,1.);
#287=LINE('',#410,#269);
#288=LINE('',#412,#270);
#289=LINE('',#414,#271);
#290=LINE('',#415,#272);
#291=LINE('',#420,#273);
#292=LINE('',#422,#274);
#293=LINE('',#423,#275);
#294=LINE('',#427,#276);
#295=LINE('',#428,#277);
#296=LINE('',#430,#278);
#297=LINE('',#431,#279);
#298=LINE('',#434,#280);
#299=LINE('',#436,#281);
#300=LINE('',#437,#282);
#301=LINE('',#440,#283);
#302=LINE('',#441,#284);
#303=LINE('',#445,#285);
#304=LINE('',#447,#286);
#305=VERTEX_POINT('',#408);
#306=VERTEX_POINT('',#409);
#307=VERTEX_POINT('',#411);
#308=VERTEX_POINT('',#413);
#309=VERTEX_POINT('',#416);
#310=VERTEX_POINT('',#419);
#311=VERTEX_POINT('',#421);
#312=VERTEX_POINT('',#425);
#313=VERTEX_POINT('',#426);
#314=VERTEX_POINT('',#429);
#315=VERTEX_POINT('',#433);
#316=VERTEX_POINT('',#435);
#317=VERTEX_POINT('',#439);
#318=VERTEX_POINT('',#442);
#319=EDGE_CURVE('',#305,#306,#287,.T.);
#320=EDGE_CURVE('',#306,#307,#288,.T.);
#321=EDGE_CURVE('',#308,#307,#289,.T.);
#322=EDGE_CURVE('',#308,#305,#290,.T.);
#323=EDGE_CURVE('',#309,#309,#227,.T.);
#324=EDGE_CURVE('',#306,#310,#291,.T.);
#325=EDGE_CURVE('',#311,#305,#292,.T.);
#326=EDGE_CURVE('',#311,#310,#293,.T.);
#327=EDGE_CURVE('',#312,#313,#294,.T.);
#328=EDGE_CURVE('',#307,#312,#295,.T.);
#329=EDGE_CURVE('',#314,#310,#296,.T.);
#330=EDGE_CURVE('',#313,#314,#297,.T.);
#331=EDGE_CURVE('',#315,#313,#298,.T.);
#332=EDGE_CURVE('',#315,#316,#299,.T.);
#333=EDGE_CURVE('',#316,#312,#300,.T.);
#334=EDGE_CURVE('',#317,#314,#301,.T.);
#335=EDGE_CURVE('',#317,#315,#302,.T.);
#336=EDGE_CURVE('',#318,#318,#228,.T.);
#337=EDGE_CURVE('',#311,#317,#303,.T.);
#338=EDGE_CURVE('',#316,#308,#304,.T.);
#339=EDGE_LOOP('',(#229,#230,#231,#232));
#340=EDGE_LOOP('',(#233));
#341=EDGE_LOOP('',(#234,#235,#236,#237));
#342=EDGE_LOOP('',(#238,#239,#240,#241,#242,#243));
#343=EDGE_LOOP('',(#244,#245,#246,#247));
#344=EDGE_LOOP('',(#248,#249,#250,#251));
#345=EDGE_LOOP('',(#252));
#346=EDGE_LOOP('',(#253,#254,#255,#256));
#347=EDGE_LOOP('',(#257,#258,#259,#260,#261,#262));
#348=EDGE_LOOP('',(#263,#264,#265,#266));
#349=EDGE_LOOP('',(#267));
#350=EDGE_LOOP('',(#268));
#351=FACE_BOUND('',#339,.T.);
#352=FACE_BOUND('',#340,.T.);
#353=FACE_BOUND('',#341,.T.);
#354=FACE_BOUND('',#342,.T.);
#355=FACE_BOUND('',#343,.T.);
#356=FACE_BOUND('',#344,.T.);
#357=FACE_BOUND('',#345,.T.);
#358=FACE_BOUND('',#346,.T.);
#359=FACE_BOUND('',#347,.T.);
#360=FACE_BOUND('',#348,.T.);
#361=FACE_BOUND('',#349,.F.);
#362=FACE_BOUND('',#350,.F.);
#363=DIRECTION('',(1.36642833800019E-016,1.,0.));
#364=DIRECTION('',(1.,-1.36642833800019E-016,0.));
#365=DIRECTION('',(0.,0.,20.));
#366=DIRECTION('',(19.5,-1.4210854715202E-014,0.));
#367=DIRECTION('',(0.,0.,20.));
#368=DIRECTION('',(-19.5,1.4210854715202E-014,0.));
#369=DIRECTION('',(0.,1.,0.));
#370=DIRECTION('',(-3.,0.,0.));
#371=DIRECTION('',(-1.,0.,0.));
#372=DIRECTION('',(0.,1.,0.));
#373=DIRECTION('',(0.,-2.30000000000001,0.));
#374=DIRECTION('',(0.,2.30000000000001,0.));
#375=DIRECTION('',(0.,0.,20.));
#376=DIRECTION('',(0.,0.,1.));
#377=DIRECTION('',(0.,-1.,0.));
#378=DIRECTION('',(-4.,-4.,0.));
#379=DIRECTION('',(0.,-2.3,0.));
#380=DIRECTION('',(-4.,4.,0.));
#381=DIRECTION('',(-11.5,0.,0.));
#382=DIRECTION('',(0.707106781186547,-0.707106781186548,0.));
#383=DIRECTION('',(-0.707106781186548,-0.707106781186547,0.));
#384=DIRECTION('',(0.,0.,20.));
#385=DIRECTION('',(4.,4.,0.));
#386=DIRECTION('',(0.,0.,20.));
#387=DIRECTION('',(8.57457505675013E-033,-1.,0.));
#388=DIRECTION('',(-1.,-8.57457505675013E-033,0.));
#389=DIRECTION('',(0.,0.,20.));
#390=DIRECTION('',(11.5,0.,0.));
#391=DIRECTION('',(0.,-1.,0.));
#392=DIRECTION('',(3.,0.,0.));
#393=DIRECTION('',(-0.707106781186548,-0.707106781186548,0.));
#394=DIRECTION('',(-0.707106781186548,0.707106781186548,0.));
#395=DIRECTION('',(4.,-4.,0.));
#396=DIRECTION('',(0.,0.,-1.));
#397=DIRECTION('',(0.,1.,0.));
#398=DIRECTION('',(0.,2.3,0.));
#399=DIRECTION('',(1.,0.,0.));
#400=DIRECTION('',(0.,-1.,0.));
#401=DIRECTION('',(0.,-1.,0.));
#402=DIRECTION('',(1.,0.,0.));
#403=DIRECTION('',(0.,0.,1.));
#404=DIRECTION('',(1.,0.,0.));
#405=DIRECTION('',(0.,0.,1.));
#406=DIRECTION('',(1.,0.,0.));
#407=CARTESIAN_POINT('',(-9.75,6.30000000000001,0.));
#408=CARTESIAN_POINT('',(-9.75,6.30000000000001,0.));
#409=CARTESIAN_POINT('',(-9.75,6.30000000000001,20.));
#410=CARTESIAN_POINT('',(-9.75,6.30000000000001,0.));
#411=CARTESIAN_POINT('',(9.75000000000001,6.3,20.));
#412=CARTESIAN_POINT('',(-9.75,6.30000000000001,20.));
#413=CARTESIAN_POINT('',(9.75000000000001,6.3,0.));
#414=CARTESIAN_POINT('',(9.75000000000001,6.3,0.));
#415=CARTESIAN_POINT('',(9.75000000000001,6.3,0.));
#416=CARTESIAN_POINT('',(-3.,6.3,10.));
#417=CARTESIAN_POINT('',(0.,6.3,10.));
#418=CARTESIAN_POINT('',(-9.75,6.30000000000001,20.));
#419=CARTESIAN_POINT('',(-9.75,4.,20.));
#420=CARTESIAN_POINT('',(-9.75,6.30000000000001,20.));
#421=CARTESIAN_POINT('',(-9.75,4.,0.));
#422=CARTESIAN_POINT('',(-9.75,4.,0.));
#423=CARTESIAN_POINT('',(-9.75,4.,0.));
#424=CARTESIAN_POINT('',(9.75000000000001,4.,20.));
#425=CARTESIAN_POINT('',(9.75000000000001,4.,20.));
#426=CARTESIAN_POINT('',(5.75000000000001,0.,20.));
#427=CARTESIAN_POINT('',(9.75000000000001,4.,20.));
#428=CARTESIAN_POINT('',(9.75000000000001,6.3,20.));
#429=CARTESIAN_POINT('',(-5.75,0.,20.));
#430=CARTESIAN_POINT('',(-5.75,0.,20.));
#431=CARTESIAN_POINT('',(5.75000000000001,0.,20.));
#432=CARTESIAN_POINT('',(9.75000000000001,4.,20.));
#433=CARTESIAN_POINT('',(5.75000000000001,0.,0.));
#434=CARTESIAN_POINT('',(5.75000000000001,0.,0.));
#435=CARTESIAN_POINT('',(9.75000000000001,4.,0.));
#436=CARTESIAN_POINT('',(5.75000000000001,0.,0.));
#437=CARTESIAN_POINT('',(9.75000000000001,4.,0.));
#438=CARTESIAN_POINT('',(5.75000000000001,0.,0.));
#439=CARTESIAN_POINT('',(-5.75,0.,0.));
#440=CARTESIAN_POINT('',(-5.75,0.,0.));
#441=CARTESIAN_POINT('',(-5.75,0.,0.));
#442=CARTESIAN_POINT('',(3.,0.,10.));
#443=CARTESIAN_POINT('',(0.,0.,10.));
#444=CARTESIAN_POINT('',(-5.75,0.,20.));
#445=CARTESIAN_POINT('',(-9.75,4.,0.));
#446=CARTESIAN_POINT('',(5.75000000000001,0.,0.));
#447=CARTESIAN_POINT('',(9.75000000000001,4.,0.));
#448=CARTESIAN_POINT('',(9.75000000000001,6.3,20.));
#449=CARTESIAN_POINT('',(0.,6.3,10.));
#450=CARTESIAN_POINT('',(0.,0.,0.));
#451=CARTESIAN_POINT('',(122.59610926498,63.9645258521768,31.4945500043445));
#452=AXIS2_PLACEMENT_3D('',#407,#363,#364);
#453=AXIS2_PLACEMENT_3D('',#417,#369,#370);
#454=AXIS2_PLACEMENT_3D('',#418,#371,#372);
#455=AXIS2_PLACEMENT_3D('',#424,#376,#377);
#456=AXIS2_PLACEMENT_3D('',#432,#382,#383);
#457=AXIS2_PLACEMENT_3D('',#438,#387,#388);
#458=AXIS2_PLACEMENT_3D('',#443,#391,#392);
#459=AXIS2_PLACEMENT_3D('',#444,#393,#394);
#460=AXIS2_PLACEMENT_3D('',#446,#396,#397);
#461=AXIS2_PLACEMENT_3D('',#448,#399,#400);
#462=AXIS2_PLACEMENT_3D('',#449,#401,#402);
#463=AXIS2_PLACEMENT_3D('',#450,#403,#404);
#464=AXIS2_PLACEMENT_3D('',#451,#405,#406);
#465=PLANE('',#452);
#466=PLANE('',#454);
#467=PLANE('',#455);
#468=PLANE('',#456);
#469=PLANE('',#457);
#470=PLANE('',#459);
#471=PLANE('',#460);
#472=PLANE('',#461);
#473=ADVANCED_FACE('',(#351,#352),#465,.T.);
#474=ADVANCED_FACE('',(#353),#466,.T.);
#475=ADVANCED_FACE('',(#354),#467,.T.);
#476=ADVANCED_FACE('',(#355),#468,.T.);
#477=ADVANCED_FACE('',(#356,#357),#469,.T.);
#478=ADVANCED_FACE('',(#358),#470,.T.);
#479=ADVANCED_FACE('',(#359),#471,.T.);
#480=ADVANCED_FACE('',(#360),#472,.T.);
#481=ADVANCED_FACE('',(#361,#362),#226,.F.);
#482=MANIFOLD_SOLID_BREP('Solid',#225);
#483=SHAPE_REPRESENTATION('RootProduct',(#464),#501);
#484=PRODUCT_DEFINITION_SHAPE('','',#488);
#485=PRODUCT_DEFINITION_SHAPE('','',#489);
#486=PRODUCT_DEFINITION_SHAPE('',$,#13);
#487=PRODUCT_DEFINITION_CONTEXT('part definition',#493,'');
#488=PRODUCT_DEFINITION('','',#490,#487);
#489=PRODUCT_DEFINITION('','',#491,#487);
#490=PRODUCT_DEFINITION_FORMATION('','',#495);
#491=PRODUCT_DEFINITION_FORMATION('','',#496);
#492=APPLICATION_PROTOCOL_DEFINITION('international standard',
'automotive_design',2003,#493);
#493=APPLICATION_CONTEXT(
'Core Data for Automotive Mechanical Design Process');
#494=PRODUCT_CONTEXT('part definition',#493,'');
#495=PRODUCT('Root','Root','',(#494));
#496=PRODUCT('122620Sleufmoer vlak 8 en 10 - M6BOIKON',
'122620Sleufmoer vlak 8 en 10 - M6BOIKON','',(#494));
#497=SHAPE_DEFINITION_REPRESENTATION(#484,#483);
#498=SHAPE_DEFINITION_REPRESENTATION(#485,#224);
#499=PRODUCT_RELATED_PRODUCT_CATEGORY('','',(#495,#496));
#500=UNCERTAINTY_MEASURE_WITH_UNIT(LENGTH_MEASURE(0.001),#503,
'DISTANCE_ACCURACY_VALUE',
'Maximum model space distance between geometric entities at asserted co
nnectivities');
#501=(
GEOMETRIC_REPRESENTATION_CONTEXT(3)
GLOBAL_UNCERTAINTY_ASSIGNED_CONTEXT((#500))
GLOBAL_UNIT_ASSIGNED_CONTEXT((#503,#505,#508))
REPRESENTATION_CONTEXT('Default Context','3D')
);
#502=(
GEOMETRIC_REPRESENTATION_CONTEXT(3)
GLOBAL_UNCERTAINTY_ASSIGNED_CONTEXT((#500))
GLOBAL_UNIT_ASSIGNED_CONTEXT((#503,#505,#508))
REPRESENTATION_CONTEXT('Default Context','3D')
);
#503=(
LENGTH_UNIT()
NAMED_UNIT(*)
SI_UNIT(.MILLI.,.METRE.)
);
#504=DIMENSIONAL_EXPONENTS(0.,0.,0.,0.,0.,0.,0.);
#505=(
CONVERSION_BASED_UNIT('degree',#507)
NAMED_UNIT(#504)
PLANE_ANGLE_UNIT()
);
#506=(
NAMED_UNIT(*)
PLANE_ANGLE_UNIT()
SI_UNIT($,.RADIAN.)
);
#507=PLANE_ANGLE_MEASURE_WITH_UNIT(PLANE_ANGLE_MEASURE(0.01745329252),#506);
#508=(
NAMED_UNIT(*)
SI_UNIT($,.STERADIAN.)
SOLID_ANGLE_UNIT()
);
ENDSEC;
END-ISO-10303-21;
