ISO-10303-21;
HEADER;
/* Generated by software containing ST-Developer
 * from STEP Tools, Inc. (www.steptools.com) 
 */
/* OPTION: using custom schema-name function */

FILE_DESCRIPTION(
/* description */ (''),
/* implementation_level */ '2;1');

FILE_NAME(
/* name */ '122630',
/* time_stamp */ '2014-10-06T10:57:01+02:00',
/* author */ (''),
/* organization */ (''),
/* preprocessor_version */ 'ST-DEVELOPER v14',
/* originating_system */ 'HiCAD 2013 1802.4 Build 509',
/* authorisation */ '');

FILE_SCHEMA (('AUTOMOTIVE_DESIGN { 1 0 10303 214 1 1 1 1 }'));
ENDSEC;

DATA;
#10=ITEM_DEFINED_TRANSFORMATION('','',#230,#231);
#11=(
REPRESENTATION_RELATIONSHIP('','',#24,#249)
REPRESENTATION_RELATIONSHIP_WITH_TRANSFORMATION(#10)
SHAPE_REPRESENTATION_RELATIONSHIP()
);
#12=CONTEXT_DEPENDENT_SHAPE_REPRESENTATION(#11,#252);
#13=NEXT_ASSEMBLY_USAGE_OCCURRENCE(
'122630Sleufmoerprofiel vlak 10 L= 1mBOIKON0',
'122630Sleufmoerprofiel vlak 10 L= 1mBOIKON0','',#254,#255,$);
#14=PRESENTATION_STYLE_ASSIGNMENT((#15));
#15=SURFACE_STYLE_USAGE(.BOTH.,#16);
#16=SURFACE_SIDE_STYLE('',(#17));
#17=SURFACE_STYLE_FILL_AREA(#18);
#18=FILL_AREA_STYLE('',(#19));
#19=FILL_AREA_STYLE_COLOUR('',#20);
#20=COLOUR_RGB('',0.443136990070343,0.717647016048431,0.807843029499054);
#21=STYLED_ITEM('Solid Colour',(#14),#248);
#22=MECHANICAL_DESIGN_GEOMETRIC_PRESENTATION_REPRESENTATION(
'Container for Styled_item',(#21),#267);
#23=PRESENTATION_LAYER_ASSIGNMENT('1','1',(#248));
#24=ADVANCED_BREP_SHAPE_REPRESENTATION('Body',(#248,#230),#268);
#25=CLOSED_SHELL('',(#240,#241,#242,#243,#244,#245,#246,#247));
#26=ORIENTED_EDGE('',*,*,#110,.T.);
#27=ORIENTED_EDGE('',*,*,#111,.F.);
#28=ORIENTED_EDGE('',*,*,#112,.F.);
#29=ORIENTED_EDGE('',*,*,#113,.T.);
#30=ORIENTED_EDGE('',*,*,#114,.T.);
#31=ORIENTED_EDGE('',*,*,#115,.F.);
#32=ORIENTED_EDGE('',*,*,#110,.F.);
#33=ORIENTED_EDGE('',*,*,#116,.T.);
#34=ORIENTED_EDGE('',*,*,#117,.T.);
#35=ORIENTED_EDGE('',*,*,#118,.F.);
#36=ORIENTED_EDGE('',*,*,#114,.F.);
#37=ORIENTED_EDGE('',*,*,#119,.T.);
#38=ORIENTED_EDGE('',*,*,#120,.T.);
#39=ORIENTED_EDGE('',*,*,#121,.F.);
#40=ORIENTED_EDGE('',*,*,#117,.F.);
#41=ORIENTED_EDGE('',*,*,#122,.T.);
#42=ORIENTED_EDGE('',*,*,#123,.T.);
#43=ORIENTED_EDGE('',*,*,#124,.F.);
#44=ORIENTED_EDGE('',*,*,#120,.F.);
#45=ORIENTED_EDGE('',*,*,#125,.T.);
#46=ORIENTED_EDGE('',*,*,#112,.T.);
#47=ORIENTED_EDGE('',*,*,#126,.F.);
#48=ORIENTED_EDGE('',*,*,#123,.F.);
#49=ORIENTED_EDGE('',*,*,#127,.T.);
#50=ORIENTED_EDGE('',*,*,#126,.T.);
#51=ORIENTED_EDGE('',*,*,#111,.T.);
#52=ORIENTED_EDGE('',*,*,#115,.T.);
#53=ORIENTED_EDGE('',*,*,#118,.T.);
#54=ORIENTED_EDGE('',*,*,#121,.T.);
#55=ORIENTED_EDGE('',*,*,#124,.T.);
#56=ORIENTED_EDGE('',*,*,#127,.F.);
#57=ORIENTED_EDGE('',*,*,#125,.F.);
#58=ORIENTED_EDGE('',*,*,#122,.F.);
#59=ORIENTED_EDGE('',*,*,#119,.F.);
#60=ORIENTED_EDGE('',*,*,#116,.F.);
#61=ORIENTED_EDGE('',*,*,#113,.F.);
#62=VECTOR('',#146,1.);
#63=VECTOR('',#147,1.);
#64=VECTOR('',#148,1.);
#65=VECTOR('',#149,1.);
#66=VECTOR('',#152,1.);
#67=VECTOR('',#153,1.);
#68=VECTOR('',#154,1.);
#69=VECTOR('',#157,1.);
#70=VECTOR('',#158,1.);
#71=VECTOR('',#159,1.);
#72=VECTOR('',#162,1.);
#73=VECTOR('',#163,1.);
#74=VECTOR('',#164,1.);
#75=VECTOR('',#167,1.);
#76=VECTOR('',#168,1.);
#77=VECTOR('',#169,1.);
#78=VECTOR('',#172,1.);
#79=VECTOR('',#173,1.);
#80=LINE('',#185,#62);
#81=LINE('',#187,#63);
#82=LINE('',#189,#64);
#83=LINE('',#190,#65);
#84=LINE('',#194,#66);
#85=LINE('',#195,#67);
#86=LINE('',#196,#68);
#87=LINE('',#200,#69);
#88=LINE('',#201,#70);
#89=LINE('',#202,#71);
#90=LINE('',#206,#72);
#91=LINE('',#207,#73);
#92=LINE('',#208,#74);
#93=LINE('',#212,#75);
#94=LINE('',#213,#76);
#95=LINE('',#214,#77);
#96=LINE('',#216,#78);
#97=LINE('',#217,#79);
#98=VERTEX_POINT('',#183);
#99=VERTEX_POINT('',#184);
#100=VERTEX_POINT('',#186);
#101=VERTEX_POINT('',#188);
#102=VERTEX_POINT('',#192);
#103=VERTEX_POINT('',#193);
#104=VERTEX_POINT('',#198);
#105=VERTEX_POINT('',#199);
#106=VERTEX_POINT('',#204);
#107=VERTEX_POINT('',#205);
#108=VERTEX_POINT('',#210);
#109=VERTEX_POINT('',#211);
#110=EDGE_CURVE('',#98,#99,#80,.T.);
#111=EDGE_CURVE('',#100,#99,#81,.T.);
#112=EDGE_CURVE('',#101,#100,#82,.T.);
#113=EDGE_CURVE('',#101,#98,#83,.T.);
#114=EDGE_CURVE('',#102,#103,#84,.T.);
#115=EDGE_CURVE('',#99,#103,#85,.T.);
#116=EDGE_CURVE('',#98,#102,#86,.T.);
#117=EDGE_CURVE('',#104,#105,#87,.T.);
#118=EDGE_CURVE('',#103,#105,#88,.T.);
#119=EDGE_CURVE('',#102,#104,#89,.T.);
#120=EDGE_CURVE('',#106,#107,#90,.T.);
#121=EDGE_CURVE('',#105,#107,#91,.T.);
#122=EDGE_CURVE('',#104,#106,#92,.T.);
#123=EDGE_CURVE('',#108,#109,#93,.T.);
#124=EDGE_CURVE('',#107,#109,#94,.T.);
#125=EDGE_CURVE('',#106,#108,#95,.T.);
#126=EDGE_CURVE('',#109,#100,#96,.T.);
#127=EDGE_CURVE('',#108,#101,#97,.T.);
#128=EDGE_LOOP('',(#26,#27,#28,#29));
#129=EDGE_LOOP('',(#30,#31,#32,#33));
#130=EDGE_LOOP('',(#34,#35,#36,#37));
#131=EDGE_LOOP('',(#38,#39,#40,#41));
#132=EDGE_LOOP('',(#42,#43,#44,#45));
#133=EDGE_LOOP('',(#46,#47,#48,#49));
#134=EDGE_LOOP('',(#50,#51,#52,#53,#54,#55));
#135=EDGE_LOOP('',(#56,#57,#58,#59,#60,#61));
#136=FACE_BOUND('',#128,.T.);
#137=FACE_BOUND('',#129,.T.);
#138=FACE_BOUND('',#130,.T.);
#139=FACE_BOUND('',#131,.T.);
#140=FACE_BOUND('',#132,.T.);
#141=FACE_BOUND('',#133,.T.);
#142=FACE_BOUND('',#134,.T.);
#143=FACE_BOUND('',#135,.T.);
#144=DIRECTION('',(-6.41654724417896E-017,-3.27745875749472E-018,1.));
#145=DIRECTION('',(0.,-1.,-3.27745875749472E-018));
#146=DIRECTION('',(-999.999999999999,0.,5.6843418860808E-014));
#147=DIRECTION('',(0.,2.00000000000001,0.));
#148=DIRECTION('',(-999.999999999999,4.9737991503207E-014,0.));
#149=DIRECTION('',(0.,2.00000000000006,-5.6843418860808E-014));
#150=DIRECTION('',(0.,1.,1.30841038223648E-017));
#151=DIRECTION('',(1.,0.,0.));
#152=DIRECTION('',(-999.999999999999,5.6843418860808E-014,0.));
#153=DIRECTION('',(0.,0.,-19.5));
#154=DIRECTION('',(0.,-5.6843418860808E-014,-19.4999999999999));
#155=DIRECTION('',(6.41654724417896E-017,3.27745875749472E-018,-1.));
#156=DIRECTION('',(0.,1.,3.27745875749472E-018));
#157=DIRECTION('',(-999.999999999999,4.9737991503207E-014,0.));
#158=DIRECTION('',(0.,-2.00000000000001,0.));
#159=DIRECTION('',(0.,-2.,0.));
#160=DIRECTION('',(2.77555756156289E-017,-0.707106781186548,-0.707106781186548));
#161=DIRECTION('',(0.,0.707106781186548,-0.707106781186548));
#162=DIRECTION('',(-999.999999999999,5.32907051820075E-014,-5.6843418860808E-014));
#163=DIRECTION('',(0.,-3.99999999999999,4.));
#164=DIRECTION('',(1.13686837721616E-013,-4.,4.00000000000006));
#165=DIRECTION('',(0.,-1.,-1.30841038223648E-017));
#166=DIRECTION('',(-1.,0.,0.));
#167=DIRECTION('',(-999.999999999999,5.32907051820075E-014,-5.6843418860808E-014));
#168=DIRECTION('',(0.,0.,11.5));
#169=DIRECTION('',(0.,0.,11.5));
#170=DIRECTION('',(2.77555756156289E-017,-0.707106781186547,0.707106781186548));
#171=DIRECTION('',(0.,-0.707106781186548,-0.707106781186547));
#172=DIRECTION('',(0.,3.99999999999999,3.99999999999997));
#173=DIRECTION('',(-1.13686837721616E-013,4.,3.99999999999991));
#174=DIRECTION('',(-1.,0.,4.62592926927148E-018));
#175=DIRECTION('',(0.,1.,0.));
#176=DIRECTION('',(1.,0.,-4.62592926927148E-018));
#177=DIRECTION('',(0.,-1.,0.));
#178=DIRECTION('',(0.,0.,1.));
#179=DIRECTION('',(1.,0.,0.));
#180=DIRECTION('',(1.,0.,0.));
#181=DIRECTION('',(0.,0.,-1.));
#182=CARTESIAN_POINT('',(999.999999999999,-5.99999999999999,9.74999999999991));
#183=CARTESIAN_POINT('',(999.999999999999,-5.99999999999999,9.74999999999991));
#184=CARTESIAN_POINT('',(0.,-5.99999999999999,9.74999999999997));
#185=CARTESIAN_POINT('',(999.999999999999,-5.99999999999999,9.74999999999991));
#186=CARTESIAN_POINT('',(0.,-8.,9.74999999999997));
#187=CARTESIAN_POINT('',(0.,-8.,9.74999999999997));
#188=CARTESIAN_POINT('',(999.999999999999,-8.00000000000005,9.74999999999997));
#189=CARTESIAN_POINT('',(999.999999999999,-8.00000000000005,9.74999999999997));
#190=CARTESIAN_POINT('',(999.999999999999,-8.00000000000005,9.74999999999997));
#191=CARTESIAN_POINT('',(999.999999999999,-6.00000000000005,-9.75));
#192=CARTESIAN_POINT('',(999.999999999999,-6.00000000000005,-9.75));
#193=CARTESIAN_POINT('',(0.,-5.99999999999999,-9.75));
#194=CARTESIAN_POINT('',(999.999999999999,-6.00000000000005,-9.75));
#195=CARTESIAN_POINT('',(0.,-5.99999999999999,9.74999999999997));
#196=CARTESIAN_POINT('',(999.999999999999,-5.99999999999999,9.74999999999991));
#197=CARTESIAN_POINT('',(999.999999999999,-8.00000000000005,-9.75));
#198=CARTESIAN_POINT('',(999.999999999999,-8.00000000000005,-9.75));
#199=CARTESIAN_POINT('',(0.,-8.,-9.75));
#200=CARTESIAN_POINT('',(999.999999999999,-8.00000000000005,-9.75));
#201=CARTESIAN_POINT('',(0.,-5.99999999999999,-9.75));
#202=CARTESIAN_POINT('',(999.999999999999,-6.00000000000005,-9.75));
#203=CARTESIAN_POINT('',(999.999999999999,-12.,-5.74999999999994));
#204=CARTESIAN_POINT('',(999.999999999999,-12.,-5.74999999999994));
#205=CARTESIAN_POINT('',(0.,-12.,-5.75));
#206=CARTESIAN_POINT('',(999.999999999999,-12.,-5.74999999999994));
#207=CARTESIAN_POINT('',(0.,-8.,-9.75));
#208=CARTESIAN_POINT('',(999.999999999999,-8.00000000000005,-9.75));
#209=CARTESIAN_POINT('',(999.999999999999,-12.,5.75000000000006));
#210=CARTESIAN_POINT('',(999.999999999999,-12.,5.75000000000006));
#211=CARTESIAN_POINT('',(0.,-12.,5.75));
#212=CARTESIAN_POINT('',(999.999999999999,-12.,5.75000000000006));
#213=CARTESIAN_POINT('',(0.,-12.,-5.75));
#214=CARTESIAN_POINT('',(999.999999999999,-12.,-5.74999999999994));
#215=CARTESIAN_POINT('',(999.999999999999,-8.00000000000005,9.74999999999997));
#216=CARTESIAN_POINT('',(0.,-12.,5.75));
#217=CARTESIAN_POINT('',(999.999999999999,-12.,5.75000000000006));
#218=CARTESIAN_POINT('',(0.,-12.,5.75));
#219=CARTESIAN_POINT('',(999.999999999999,-8.00000000000005,9.74999999999997));
#220=CARTESIAN_POINT('',(0.,0.,0.));
#221=CARTESIAN_POINT('',(87.8082383681824,17.5063066490034,999.999999999999));
#222=AXIS2_PLACEMENT_3D('',#182,#144,#145);
#223=AXIS2_PLACEMENT_3D('',#191,#150,#151);
#224=AXIS2_PLACEMENT_3D('',#197,#155,#156);
#225=AXIS2_PLACEMENT_3D('',#203,#160,#161);
#226=AXIS2_PLACEMENT_3D('',#209,#165,#166);
#227=AXIS2_PLACEMENT_3D('',#215,#170,#171);
#228=AXIS2_PLACEMENT_3D('',#218,#174,#175);
#229=AXIS2_PLACEMENT_3D('',#219,#176,#177);
#230=AXIS2_PLACEMENT_3D('',#220,#178,#179);
#231=AXIS2_PLACEMENT_3D('',#221,#180,#181);
#232=PLANE('',#222);
#233=PLANE('',#223);
#234=PLANE('',#224);
#235=PLANE('',#225);
#236=PLANE('',#226);
#237=PLANE('',#227);
#238=PLANE('',#228);
#239=PLANE('',#229);
#240=ADVANCED_FACE('',(#136),#232,.T.);
#241=ADVANCED_FACE('',(#137),#233,.T.);
#242=ADVANCED_FACE('',(#138),#234,.T.);
#243=ADVANCED_FACE('',(#139),#235,.T.);
#244=ADVANCED_FACE('',(#140),#236,.T.);
#245=ADVANCED_FACE('',(#141),#237,.T.);
#246=ADVANCED_FACE('',(#142),#238,.T.);
#247=ADVANCED_FACE('',(#143),#239,.T.);
#248=MANIFOLD_SOLID_BREP('Solid',#25);
#249=SHAPE_REPRESENTATION('RootProduct',(#231),#267);
#250=PRODUCT_DEFINITION_SHAPE('','',#254);
#251=PRODUCT_DEFINITION_SHAPE('','',#255);
#252=PRODUCT_DEFINITION_SHAPE('',$,#13);
#253=PRODUCT_DEFINITION_CONTEXT('part definition',#259,'');
#254=PRODUCT_DEFINITION('','',#256,#253);
#255=PRODUCT_DEFINITION('','',#257,#253);
#256=PRODUCT_DEFINITION_FORMATION('','',#261);
#257=PRODUCT_DEFINITION_FORMATION('','',#262);
#258=APPLICATION_PROTOCOL_DEFINITION('international standard',
'automotive_design',2003,#259);
#259=APPLICATION_CONTEXT(
'Core Data for Automotive Mechanical Design Process');
#260=PRODUCT_CONTEXT('part definition',#259,'');
#261=PRODUCT('Root','Root','',(#260));
#262=PRODUCT('122630Sleufmoerprofiel vlak 10 L= 1mBOIKON0',
'122630Sleufmoerprofiel vlak 10 L= 1mBOIKON0','',(#260));
#263=SHAPE_DEFINITION_REPRESENTATION(#250,#249);
#264=SHAPE_DEFINITION_REPRESENTATION(#251,#24);
#265=PRODUCT_RELATED_PRODUCT_CATEGORY('','',(#261,#262));
#266=UNCERTAINTY_MEASURE_WITH_UNIT(LENGTH_MEASURE(0.001),#269,
'DISTANCE_ACCURACY_VALUE',
'Maximum model space distance between geometric entities at asserted co
nnectivities');
#267=(
GEOMETRIC_REPRESENTATION_CONTEXT(3)
GLOBAL_UNCERTAINTY_ASSIGNED_CONTEXT((#266))
GLOBAL_UNIT_ASSIGNED_CONTEXT((#269,#271,#274))
REPRESENTATION_CONTEXT('Default Context','3D')
);
#268=(
GEOMETRIC_REPRESENTATION_CONTEXT(3)
GLOBAL_UNCERTAINTY_ASSIGNED_CONTEXT((#266))
GLOBAL_UNIT_ASSIGNED_CONTEXT((#269,#271,#274))
REPRESENTATION_CONTEXT('Default Context','3D')
);
#269=(
LENGTH_UNIT()
NAMED_UNIT(*)
SI_UNIT(.MILLI.,.METRE.)
);
#270=DIMENSIONAL_EXPONENTS(0.,0.,0.,0.,0.,0.,0.);
#271=(
CONVERSION_BASED_UNIT('degree',#273)
NAMED_UNIT(#270)
PLANE_ANGLE_UNIT()
);
#272=(
NAMED_UNIT(*)
PLANE_ANGLE_UNIT()
SI_UNIT($,.RADIAN.)
);
#273=PLANE_ANGLE_MEASURE_WITH_UNIT(PLANE_ANGLE_MEASURE(0.01745329252),#272);
#274=(
NAMED_UNIT(*)
SI_UNIT($,.STERADIAN.)
SOLID_ANGLE_UNIT()
);
ENDSEC;
END-ISO-10303-21;
