ISO-10303-21;
HEADER;
/* Generated by software containing ST-Developer
 * from STEP Tools, Inc. (www.steptools.com) 
 */
/* OPTION: using custom schema-name function */

FILE_DESCRIPTION(
/* description */ (''),
/* implementation_level */ '2;1');

FILE_NAME(
/* name */ '122635',
/* time_stamp */ '2014-10-06T12:00:39+02:00',
/* author */ (''),
/* organization */ (''),
/* preprocessor_version */ 'ST-DEVELOPER v14',
/* originating_system */ 'HiCAD 2013 1802.4 Build 509',
/* authorisation */ '');

FILE_SCHEMA (('AUTOMOTIVE_DESIGN { 1 0 10303 214 1 1 1 1 }'));
ENDSEC;

DATA;
#10=ITEM_DEFINED_TRANSFORMATION('','',#465,#466);
#11=(
REPRESENTATION_RELATIONSHIP('','',#542,#541)
REPRESENTATION_RELATIONSHIP_WITH_TRANSFORMATION(#10)
SHAPE_REPRESENTATION_RELATIONSHIP()
);
#12=CONTEXT_DEPENDENT_SHAPE_REPRESENTATION(#11,#545);
#13=NEXT_ASSEMBLY_USAGE_OCCURRENCE(
'122635Sleufmoer vlak 8 en 10 - 2x M8 L=60BOIKON',
'122635Sleufmoer vlak 8 en 10 - 2x M8 L=60BOIKON','',#547,#548,$);
#14=DRAUGHTING_PRE_DEFINED_CURVE_FONT('continuous');
#15=DRAUGHTING_PRE_DEFINED_CURVE_FONT('continuous');
#16=DRAUGHTING_PRE_DEFINED_CURVE_FONT('continuous');
#17=DRAUGHTING_PRE_DEFINED_CURVE_FONT('continuous');
#18=DRAUGHTING_PRE_DEFINED_CURVE_FONT('continuous');
#19=DRAUGHTING_PRE_DEFINED_CURVE_FONT('continuous');
#20=DRAUGHTING_PRE_DEFINED_CURVE_FONT('continuous');
#21=DRAUGHTING_PRE_DEFINED_CURVE_FONT('continuous');
#22=DRAUGHTING_PRE_DEFINED_CURVE_FONT('continuous');
#23=DRAUGHTING_PRE_DEFINED_CURVE_FONT('continuous');
#24=DRAUGHTING_PRE_DEFINED_CURVE_FONT('continuous');
#25=DRAUGHTING_PRE_DEFINED_CURVE_FONT('continuous');
#26=DRAUGHTING_PRE_DEFINED_CURVE_FONT('continuous');
#27=DRAUGHTING_PRE_DEFINED_CURVE_FONT('continuous');
#28=DRAUGHTING_PRE_DEFINED_CURVE_FONT('continuous');
#29=DRAUGHTING_PRE_DEFINED_CURVE_FONT('continuous');
#30=DRAUGHTING_PRE_DEFINED_CURVE_FONT('continuous');
#31=DRAUGHTING_PRE_DEFINED_CURVE_FONT('continuous');
#32=DRAUGHTING_PRE_DEFINED_CURVE_FONT('continuous');
#33=DRAUGHTING_PRE_DEFINED_CURVE_FONT('continuous');
#34=DRAUGHTING_PRE_DEFINED_CURVE_FONT('continuous');
#35=DRAUGHTING_PRE_DEFINED_CURVE_FONT('continuous');
#36=DRAUGHTING_PRE_DEFINED_CURVE_FONT('continuous');
#37=DRAUGHTING_PRE_DEFINED_CURVE_FONT('continuous');
#38=DRAUGHTING_PRE_DEFINED_CURVE_FONT('continuous');
#39=DRAUGHTING_PRE_DEFINED_CURVE_FONT('continuous');
#40=DRAUGHTING_PRE_DEFINED_CURVE_FONT('continuous');
#41=DRAUGHTING_PRE_DEFINED_CURVE_FONT('continuous');
#42=DRAUGHTING_PRE_DEFINED_CURVE_FONT('continuous');
#43=DRAUGHTING_PRE_DEFINED_CURVE_FONT('continuous');
#44=DRAUGHTING_PRE_DEFINED_CURVE_FONT('continuous');
#45=DRAUGHTING_PRE_DEFINED_CURVE_FONT('continuous');
#46=DRAUGHTING_PRE_DEFINED_CURVE_FONT('continuous');
#47=DRAUGHTING_PRE_DEFINED_CURVE_FONT('continuous');
#48=DRAUGHTING_PRE_DEFINED_CURVE_FONT('continuous');
#49=DRAUGHTING_PRE_DEFINED_CURVE_FONT('continuous');
#50=DRAUGHTING_PRE_DEFINED_CURVE_FONT('continuous');
#51=DRAUGHTING_PRE_DEFINED_CURVE_FONT('continuous');
#52=DRAUGHTING_PRE_DEFINED_CURVE_FONT('continuous');
#53=DRAUGHTING_PRE_DEFINED_CURVE_FONT('continuous');
#54=DRAUGHTING_PRE_DEFINED_CURVE_FONT('continuous');
#55=DRAUGHTING_PRE_DEFINED_CURVE_FONT('continuous');
#56=DRAUGHTING_PRE_DEFINED_CURVE_FONT('continuous');
#57=DRAUGHTING_PRE_DEFINED_CURVE_FONT('continuous');
#58=CURVE_STYLE(' ',#14,POSITIVE_LENGTH_MEASURE(0.352777777777778),#197);
#59=CURVE_STYLE(' ',#15,POSITIVE_LENGTH_MEASURE(0.352777777777778),#198);
#60=CURVE_STYLE(' ',#16,POSITIVE_LENGTH_MEASURE(0.352777777777778),#199);
#61=CURVE_STYLE(' ',#17,POSITIVE_LENGTH_MEASURE(0.352777777777778),#200);
#62=CURVE_STYLE(' ',#18,POSITIVE_LENGTH_MEASURE(0.352777777777778),#201);
#63=CURVE_STYLE(' ',#19,POSITIVE_LENGTH_MEASURE(0.352777777777778),#202);
#64=CURVE_STYLE(' ',#20,POSITIVE_LENGTH_MEASURE(0.352777777777778),#203);
#65=CURVE_STYLE(' ',#21,POSITIVE_LENGTH_MEASURE(0.352777777777778),#204);
#66=CURVE_STYLE(' ',#22,POSITIVE_LENGTH_MEASURE(0.352777777777778),#205);
#67=CURVE_STYLE(' ',#23,POSITIVE_LENGTH_MEASURE(0.352777777777778),#206);
#68=CURVE_STYLE(' ',#24,POSITIVE_LENGTH_MEASURE(0.352777777777778),#207);
#69=CURVE_STYLE(' ',#25,POSITIVE_LENGTH_MEASURE(0.352777777777778),#208);
#70=CURVE_STYLE(' ',#26,POSITIVE_LENGTH_MEASURE(0.352777777777778),#209);
#71=CURVE_STYLE(' ',#27,POSITIVE_LENGTH_MEASURE(0.352777777777778),#210);
#72=CURVE_STYLE(' ',#28,POSITIVE_LENGTH_MEASURE(0.352777777777778),#211);
#73=CURVE_STYLE(' ',#29,POSITIVE_LENGTH_MEASURE(0.352777777777778),#212);
#74=CURVE_STYLE(' ',#30,POSITIVE_LENGTH_MEASURE(0.352777777777778),#213);
#75=CURVE_STYLE(' ',#31,POSITIVE_LENGTH_MEASURE(0.352777777777778),#214);
#76=CURVE_STYLE(' ',#32,POSITIVE_LENGTH_MEASURE(0.352777777777778),#215);
#77=CURVE_STYLE(' ',#33,POSITIVE_LENGTH_MEASURE(0.352777777777778),#216);
#78=CURVE_STYLE(' ',#34,POSITIVE_LENGTH_MEASURE(0.352777777777778),#217);
#79=CURVE_STYLE(' ',#35,POSITIVE_LENGTH_MEASURE(0.352777777777778),#218);
#80=CURVE_STYLE(' ',#36,POSITIVE_LENGTH_MEASURE(0.352777777777778),#219);
#81=CURVE_STYLE(' ',#37,POSITIVE_LENGTH_MEASURE(0.352777777777778),#220);
#82=CURVE_STYLE(' ',#38,POSITIVE_LENGTH_MEASURE(0.352777777777778),#221);
#83=CURVE_STYLE(' ',#39,POSITIVE_LENGTH_MEASURE(0.352777777777778),#222);
#84=CURVE_STYLE(' ',#40,POSITIVE_LENGTH_MEASURE(0.352777777777778),#223);
#85=CURVE_STYLE(' ',#41,POSITIVE_LENGTH_MEASURE(0.352777777777778),#224);
#86=CURVE_STYLE(' ',#42,POSITIVE_LENGTH_MEASURE(0.352777777777778),#225);
#87=CURVE_STYLE(' ',#43,POSITIVE_LENGTH_MEASURE(0.352777777777778),#226);
#88=CURVE_STYLE(' ',#44,POSITIVE_LENGTH_MEASURE(0.352777777777778),#227);
#89=CURVE_STYLE(' ',#45,POSITIVE_LENGTH_MEASURE(0.352777777777778),#228);
#90=CURVE_STYLE(' ',#46,POSITIVE_LENGTH_MEASURE(0.352777777777778),#229);
#91=CURVE_STYLE(' ',#47,POSITIVE_LENGTH_MEASURE(0.352777777777778),#230);
#92=CURVE_STYLE(' ',#48,POSITIVE_LENGTH_MEASURE(0.352777777777778),#231);
#93=CURVE_STYLE(' ',#49,POSITIVE_LENGTH_MEASURE(0.352777777777778),#232);
#94=CURVE_STYLE(' ',#50,POSITIVE_LENGTH_MEASURE(0.352777777777778),#233);
#95=CURVE_STYLE(' ',#51,POSITIVE_LENGTH_MEASURE(0.352777777777778),#234);
#96=CURVE_STYLE(' ',#52,POSITIVE_LENGTH_MEASURE(0.352777777777778),#235);
#97=CURVE_STYLE(' ',#53,POSITIVE_LENGTH_MEASURE(0.352777777777778),#236);
#98=CURVE_STYLE(' ',#54,POSITIVE_LENGTH_MEASURE(0.352777777777778),#237);
#99=CURVE_STYLE(' ',#55,POSITIVE_LENGTH_MEASURE(0.352777777777778),#238);
#100=CURVE_STYLE(' ',#56,POSITIVE_LENGTH_MEASURE(0.352777777777778),#239);
#101=CURVE_STYLE(' ',#57,POSITIVE_LENGTH_MEASURE(0.352777777777778),#240);
#102=OVER_RIDING_STYLED_ITEM('Edge Colour',(#147),#347,#241);
#103=OVER_RIDING_STYLED_ITEM('Edge Colour',(#148),#348,#241);
#104=OVER_RIDING_STYLED_ITEM('Edge Colour',(#149),#349,#241);
#105=OVER_RIDING_STYLED_ITEM('Edge Colour',(#150),#350,#241);
#106=OVER_RIDING_STYLED_ITEM('Edge Colour',(#151),#351,#241);
#107=OVER_RIDING_STYLED_ITEM('Edge Colour',(#152),#352,#241);
#108=OVER_RIDING_STYLED_ITEM('Edge Colour',(#153),#353,#241);
#109=OVER_RIDING_STYLED_ITEM('Edge Colour',(#154),#354,#241);
#110=OVER_RIDING_STYLED_ITEM('Edge Colour',(#155),#355,#241);
#111=OVER_RIDING_STYLED_ITEM('Edge Colour',(#156),#347,#241);
#112=OVER_RIDING_STYLED_ITEM('Edge Colour',(#157),#356,#241);
#113=OVER_RIDING_STYLED_ITEM('Edge Colour',(#158),#357,#241);
#114=OVER_RIDING_STYLED_ITEM('Edge Colour',(#159),#358,#241);
#115=OVER_RIDING_STYLED_ITEM('Edge Colour',(#160),#353,#241);
#116=OVER_RIDING_STYLED_ITEM('Edge Colour',(#161),#359,#241);
#117=OVER_RIDING_STYLED_ITEM('Edge Colour',(#162),#360,#241);
#118=OVER_RIDING_STYLED_ITEM('Edge Colour',(#163),#361,#241);
#119=OVER_RIDING_STYLED_ITEM('Edge Colour',(#164),#362,#241);
#120=OVER_RIDING_STYLED_ITEM('Edge Colour',(#165),#363,#241);
#121=OVER_RIDING_STYLED_ITEM('Edge Colour',(#166),#364,#241);
#122=OVER_RIDING_STYLED_ITEM('Edge Colour',(#167),#354,#241);
#123=OVER_RIDING_STYLED_ITEM('Edge Colour',(#168),#358,#241);
#124=OVER_RIDING_STYLED_ITEM('Edge Colour',(#169),#360,#241);
#125=OVER_RIDING_STYLED_ITEM('Edge Colour',(#170),#365,#241);
#126=OVER_RIDING_STYLED_ITEM('Edge Colour',(#171),#366,#241);
#127=OVER_RIDING_STYLED_ITEM('Edge Colour',(#172),#349,#241);
#128=OVER_RIDING_STYLED_ITEM('Edge Colour',(#173),#367,#241);
#129=OVER_RIDING_STYLED_ITEM('Edge Colour',(#174),#363,#241);
#130=OVER_RIDING_STYLED_ITEM('Edge Colour',(#175),#365,#241);
#131=OVER_RIDING_STYLED_ITEM('Edge Colour',(#176),#359,#241);
#132=OVER_RIDING_STYLED_ITEM('Edge Colour',(#177),#357,#241);
#133=OVER_RIDING_STYLED_ITEM('Edge Colour',(#178),#368,#241);
#134=OVER_RIDING_STYLED_ITEM('Edge Colour',(#179),#366,#241);
#135=OVER_RIDING_STYLED_ITEM('Edge Colour',(#180),#368,#241);
#136=OVER_RIDING_STYLED_ITEM('Edge Colour',(#181),#356,#241);
#137=OVER_RIDING_STYLED_ITEM('Edge Colour',(#182),#350,#241);
#138=OVER_RIDING_STYLED_ITEM('Edge Colour',(#183),#367,#241);
#139=OVER_RIDING_STYLED_ITEM('Edge Colour',(#184),#348,#241);
#140=OVER_RIDING_STYLED_ITEM('Edge Colour',(#185),#355,#241);
#141=OVER_RIDING_STYLED_ITEM('Edge Colour',(#186),#364,#241);
#142=OVER_RIDING_STYLED_ITEM('Edge Colour',(#187),#351,#241);
#143=OVER_RIDING_STYLED_ITEM('Edge Colour',(#188),#361,#241);
#144=OVER_RIDING_STYLED_ITEM('Edge Colour',(#189),#352,#241);
#145=OVER_RIDING_STYLED_ITEM('Edge Colour',(#190),#362,#241);
#146=PRESENTATION_STYLE_ASSIGNMENT((#191));
#147=PRESENTATION_STYLE_ASSIGNMENT((#58));
#148=PRESENTATION_STYLE_ASSIGNMENT((#59));
#149=PRESENTATION_STYLE_ASSIGNMENT((#60));
#150=PRESENTATION_STYLE_ASSIGNMENT((#61));
#151=PRESENTATION_STYLE_ASSIGNMENT((#62));
#152=PRESENTATION_STYLE_ASSIGNMENT((#63));
#153=PRESENTATION_STYLE_ASSIGNMENT((#64));
#154=PRESENTATION_STYLE_ASSIGNMENT((#65));
#155=PRESENTATION_STYLE_ASSIGNMENT((#66));
#156=PRESENTATION_STYLE_ASSIGNMENT((#67));
#157=PRESENTATION_STYLE_ASSIGNMENT((#68));
#158=PRESENTATION_STYLE_ASSIGNMENT((#69));
#159=PRESENTATION_STYLE_ASSIGNMENT((#70));
#160=PRESENTATION_STYLE_ASSIGNMENT((#71));
#161=PRESENTATION_STYLE_ASSIGNMENT((#72));
#162=PRESENTATION_STYLE_ASSIGNMENT((#73));
#163=PRESENTATION_STYLE_ASSIGNMENT((#74));
#164=PRESENTATION_STYLE_ASSIGNMENT((#75));
#165=PRESENTATION_STYLE_ASSIGNMENT((#76));
#166=PRESENTATION_STYLE_ASSIGNMENT((#77));
#167=PRESENTATION_STYLE_ASSIGNMENT((#78));
#168=PRESENTATION_STYLE_ASSIGNMENT((#79));
#169=PRESENTATION_STYLE_ASSIGNMENT((#80));
#170=PRESENTATION_STYLE_ASSIGNMENT((#81));
#171=PRESENTATION_STYLE_ASSIGNMENT((#82));
#172=PRESENTATION_STYLE_ASSIGNMENT((#83));
#173=PRESENTATION_STYLE_ASSIGNMENT((#84));
#174=PRESENTATION_STYLE_ASSIGNMENT((#85));
#175=PRESENTATION_STYLE_ASSIGNMENT((#86));
#176=PRESENTATION_STYLE_ASSIGNMENT((#87));
#177=PRESENTATION_STYLE_ASSIGNMENT((#88));
#178=PRESENTATION_STYLE_ASSIGNMENT((#89));
#179=PRESENTATION_STYLE_ASSIGNMENT((#90));
#180=PRESENTATION_STYLE_ASSIGNMENT((#91));
#181=PRESENTATION_STYLE_ASSIGNMENT((#92));
#182=PRESENTATION_STYLE_ASSIGNMENT((#93));
#183=PRESENTATION_STYLE_ASSIGNMENT((#94));
#184=PRESENTATION_STYLE_ASSIGNMENT((#95));
#185=PRESENTATION_STYLE_ASSIGNMENT((#96));
#186=PRESENTATION_STYLE_ASSIGNMENT((#97));
#187=PRESENTATION_STYLE_ASSIGNMENT((#98));
#188=PRESENTATION_STYLE_ASSIGNMENT((#99));
#189=PRESENTATION_STYLE_ASSIGNMENT((#100));
#190=PRESENTATION_STYLE_ASSIGNMENT((#101));
#191=SURFACE_STYLE_USAGE(.BOTH.,#192);
#192=SURFACE_SIDE_STYLE('',(#193));
#193=SURFACE_STYLE_FILL_AREA(#194);
#194=FILL_AREA_STYLE('',(#195));
#195=FILL_AREA_STYLE_COLOUR('',#196);
#196=COLOUR_RGB('',0.443136990070343,0.717647016048431,0.807843029499054);
#197=COLOUR_RGB('',0.,0.,0.);
#198=COLOUR_RGB('',0.,0.,0.);
#199=COLOUR_RGB('',0.,0.,0.);
#200=COLOUR_RGB('',0.,0.,0.);
#201=COLOUR_RGB('',0.,0.,0.);
#202=COLOUR_RGB('',0.,0.,0.);
#203=COLOUR_RGB('',0.,0.,0.);
#204=COLOUR_RGB('',0.,0.,0.);
#205=COLOUR_RGB('',0.,0.,0.);
#206=COLOUR_RGB('',0.,0.,0.);
#207=COLOUR_RGB('',0.,0.,0.);
#208=COLOUR_RGB('',0.,0.,0.);
#209=COLOUR_RGB('',0.,0.,0.);
#210=COLOUR_RGB('',0.,0.,0.);
#211=COLOUR_RGB('',0.,0.,0.);
#212=COLOUR_RGB('',0.,0.,0.);
#213=COLOUR_RGB('',0.,0.,0.);
#214=COLOUR_RGB('',0.,0.,0.);
#215=COLOUR_RGB('',0.,0.,0.);
#216=COLOUR_RGB('',0.,0.,0.);
#217=COLOUR_RGB('',0.,0.,0.);
#218=COLOUR_RGB('',0.,0.,0.);
#219=COLOUR_RGB('',0.,0.,0.);
#220=COLOUR_RGB('',0.,0.,0.);
#221=COLOUR_RGB('',0.,0.,0.);
#222=COLOUR_RGB('',0.,0.,0.);
#223=COLOUR_RGB('',0.,0.,0.);
#224=COLOUR_RGB('',0.,0.,0.);
#225=COLOUR_RGB('',0.,0.,0.);
#226=COLOUR_RGB('',0.,0.,0.);
#227=COLOUR_RGB('',0.,0.,0.);
#228=COLOUR_RGB('',0.,0.,0.);
#229=COLOUR_RGB('',0.,0.,0.);
#230=COLOUR_RGB('',0.,0.,0.);
#231=COLOUR_RGB('',0.,0.,0.);
#232=COLOUR_RGB('',0.,0.,0.);
#233=COLOUR_RGB('',0.,0.,0.);
#234=COLOUR_RGB('',0.,0.,0.);
#235=COLOUR_RGB('',0.,0.,0.);
#236=COLOUR_RGB('',0.,0.,0.);
#237=COLOUR_RGB('',0.,0.,0.);
#238=COLOUR_RGB('',0.,0.,0.);
#239=COLOUR_RGB('',0.,0.,0.);
#240=COLOUR_RGB('',0.,0.,0.);
#241=STYLED_ITEM('Solid Colour',(#146),#485);
#242=MECHANICAL_DESIGN_GEOMETRIC_PRESENTATION_REPRESENTATION(
'Container for Styled_item',(#241,#122,#123,#124,#125,#126,#127,#128,#129,
#130,#131,#132,#133,#134,#135,#136,#137,#138,#139,#140,#141,#142,#143,#144,
#145,#102,#103,#104,#105,#106,#107,#108,#109,#110,#111,#112,#113,#114,#115,
#116,#117,#118,#119,#120,#121),#560);
#243=PRESENTATION_LAYER_ASSIGNMENT('APPLE','1',(#486,#485));
#244=CLOSED_SHELL('',(#475,#476,#477,#478,#479,#480,#481,#482,#483,#484));
#245=CYLINDRICAL_SURFACE('',#463,4.);
#246=CYLINDRICAL_SURFACE('',#464,4.);
#247=CIRCLE('',#452,4.);
#248=CIRCLE('',#453,4.);
#249=CIRCLE('',#456,4.);
#250=CIRCLE('',#457,4.);
#251=ORIENTED_EDGE('',*,*,#347,.T.);
#252=ORIENTED_EDGE('',*,*,#348,.T.);
#253=ORIENTED_EDGE('',*,*,#349,.T.);
#254=ORIENTED_EDGE('',*,*,#350,.F.);
#255=ORIENTED_EDGE('',*,*,#351,.F.);
#256=ORIENTED_EDGE('',*,*,#352,.F.);
#257=ORIENTED_EDGE('',*,*,#353,.F.);
#258=ORIENTED_EDGE('',*,*,#354,.F.);
#259=ORIENTED_EDGE('',*,*,#355,.F.);
#260=ORIENTED_EDGE('',*,*,#347,.F.);
#261=ORIENTED_EDGE('',*,*,#356,.F.);
#262=ORIENTED_EDGE('',*,*,#357,.T.);
#263=ORIENTED_EDGE('',*,*,#358,.F.);
#264=ORIENTED_EDGE('',*,*,#353,.T.);
#265=ORIENTED_EDGE('',*,*,#359,.T.);
#266=ORIENTED_EDGE('',*,*,#360,.T.);
#267=ORIENTED_EDGE('',*,*,#361,.F.);
#268=ORIENTED_EDGE('',*,*,#362,.F.);
#269=ORIENTED_EDGE('',*,*,#363,.T.);
#270=ORIENTED_EDGE('',*,*,#364,.F.);
#271=ORIENTED_EDGE('',*,*,#354,.T.);
#272=ORIENTED_EDGE('',*,*,#358,.T.);
#273=ORIENTED_EDGE('',*,*,#360,.F.);
#274=ORIENTED_EDGE('',*,*,#365,.T.);
#275=ORIENTED_EDGE('',*,*,#366,.F.);
#276=ORIENTED_EDGE('',*,*,#349,.F.);
#277=ORIENTED_EDGE('',*,*,#367,.F.);
#278=ORIENTED_EDGE('',*,*,#363,.F.);
#279=ORIENTED_EDGE('',*,*,#365,.F.);
#280=ORIENTED_EDGE('',*,*,#359,.F.);
#281=ORIENTED_EDGE('',*,*,#357,.F.);
#282=ORIENTED_EDGE('',*,*,#368,.T.);
#283=ORIENTED_EDGE('',*,*,#366,.T.);
#284=ORIENTED_EDGE('',*,*,#368,.F.);
#285=ORIENTED_EDGE('',*,*,#356,.T.);
#286=ORIENTED_EDGE('',*,*,#350,.T.);
#287=ORIENTED_EDGE('',*,*,#367,.T.);
#288=ORIENTED_EDGE('',*,*,#348,.F.);
#289=ORIENTED_EDGE('',*,*,#355,.T.);
#290=ORIENTED_EDGE('',*,*,#364,.T.);
#291=ORIENTED_EDGE('',*,*,#351,.F.);
#292=ORIENTED_EDGE('',*,*,#361,.F.);
#293=ORIENTED_EDGE('',*,*,#352,.F.);
#294=ORIENTED_EDGE('',*,*,#362,.F.);
#295=VECTOR('',#403,1.);
#296=VECTOR('',#404,1.);
#297=VECTOR('',#405,1.);
#298=VECTOR('',#406,1.);
#299=VECTOR('',#413,1.);
#300=VECTOR('',#414,1.);
#301=VECTOR('',#415,1.);
#302=VECTOR('',#416,1.);
#303=VECTOR('',#417,1.);
#304=VECTOR('',#420,1.);
#305=VECTOR('',#421,1.);
#306=VECTOR('',#422,1.);
#307=VECTOR('',#429,1.);
#308=VECTOR('',#430,1.);
#309=VECTOR('',#433,1.);
#310=VECTOR('',#434,1.);
#311=VECTOR('',#435,1.);
#312=VECTOR('',#438,1.);
#313=LINE('',#494,#295);
#314=LINE('',#496,#296);
#315=LINE('',#498,#297);
#316=LINE('',#499,#298);
#317=LINE('',#507,#299);
#318=LINE('',#509,#300);
#319=LINE('',#510,#301);
#320=LINE('',#512,#302);
#321=LINE('',#513,#303);
#322=LINE('',#516,#304);
#323=LINE('',#518,#305);
#324=LINE('',#519,#306);
#325=LINE('',#526,#307);
#326=LINE('',#527,#308);
#327=LINE('',#530,#309);
#328=LINE('',#531,#310);
#329=LINE('',#532,#311);
#330=LINE('',#534,#312);
#331=VERTEX_POINT('',#492);
#332=VERTEX_POINT('',#493);
#333=VERTEX_POINT('',#495);
#334=VERTEX_POINT('',#497);
#335=VERTEX_POINT('',#500);
#336=VERTEX_POINT('',#502);
#337=VERTEX_POINT('',#505);
#338=VERTEX_POINT('',#506);
#339=VERTEX_POINT('',#508);
#340=VERTEX_POINT('',#511);
#341=VERTEX_POINT('',#515);
#342=VERTEX_POINT('',#517);
#343=VERTEX_POINT('',#520);
#344=VERTEX_POINT('',#522);
#345=VERTEX_POINT('',#525);
#346=VERTEX_POINT('',#529);
#347=EDGE_CURVE('',#331,#332,#313,.T.);
#348=EDGE_CURVE('',#332,#333,#314,.T.);
#349=EDGE_CURVE('',#333,#334,#315,.T.);
#350=EDGE_CURVE('',#331,#334,#316,.T.);
#351=EDGE_CURVE('',#335,#335,#247,.T.);
#352=EDGE_CURVE('',#336,#336,#248,.T.);
#353=EDGE_CURVE('',#337,#338,#317,.T.);
#354=EDGE_CURVE('',#339,#337,#318,.T.);
#355=EDGE_CURVE('',#332,#339,#319,.T.);
#356=EDGE_CURVE('',#340,#331,#320,.T.);
#357=EDGE_CURVE('',#340,#338,#321,.T.);
#358=EDGE_CURVE('',#337,#341,#322,.T.);
#359=EDGE_CURVE('',#338,#342,#323,.T.);
#360=EDGE_CURVE('',#342,#341,#324,.T.);
#361=EDGE_CURVE('',#343,#343,#249,.T.);
#362=EDGE_CURVE('',#344,#344,#250,.T.);
#363=EDGE_CURVE('',#341,#345,#325,.T.);
#364=EDGE_CURVE('',#339,#345,#326,.T.);
#365=EDGE_CURVE('',#342,#346,#327,.T.);
#366=EDGE_CURVE('',#334,#346,#328,.T.);
#367=EDGE_CURVE('',#345,#333,#329,.T.);
#368=EDGE_CURVE('',#340,#346,#330,.T.);
#369=EDGE_LOOP('',(#251,#252,#253,#254));
#370=EDGE_LOOP('',(#255));
#371=EDGE_LOOP('',(#256));
#372=EDGE_LOOP('',(#257,#258,#259,#260,#261,#262));
#373=EDGE_LOOP('',(#263,#264,#265,#266));
#374=EDGE_LOOP('',(#267));
#375=EDGE_LOOP('',(#268));
#376=EDGE_LOOP('',(#269,#270,#271,#272));
#377=EDGE_LOOP('',(#273,#274,#275,#276,#277,#278));
#378=EDGE_LOOP('',(#279,#280,#281,#282));
#379=EDGE_LOOP('',(#283,#284,#285,#286));
#380=EDGE_LOOP('',(#287,#288,#289,#290));
#381=EDGE_LOOP('',(#291));
#382=EDGE_LOOP('',(#292));
#383=EDGE_LOOP('',(#293));
#384=EDGE_LOOP('',(#294));
#385=FACE_BOUND('',#369,.T.);
#386=FACE_BOUND('',#370,.T.);
#387=FACE_BOUND('',#371,.T.);
#388=FACE_BOUND('',#372,.T.);
#389=FACE_BOUND('',#373,.T.);
#390=FACE_BOUND('',#374,.T.);
#391=FACE_BOUND('',#375,.T.);
#392=FACE_BOUND('',#376,.T.);
#393=FACE_BOUND('',#377,.T.);
#394=FACE_BOUND('',#378,.T.);
#395=FACE_BOUND('',#379,.T.);
#396=FACE_BOUND('',#380,.T.);
#397=FACE_BOUND('',#381,.F.);
#398=FACE_BOUND('',#382,.F.);
#399=FACE_BOUND('',#383,.F.);
#400=FACE_BOUND('',#384,.F.);
#401=DIRECTION('',(8.57457505675013E-033,-1.,0.));
#402=DIRECTION('',(-1.,-8.57457505675013E-033,0.));
#403=DIRECTION('',(11.5,0.,0.));
#404=DIRECTION('',(0.,0.,60.));
#405=DIRECTION('',(-11.5,0.,0.));
#406=DIRECTION('',(0.,0.,60.));
#407=DIRECTION('',(0.,-1.,0.));
#408=DIRECTION('',(4.,0.,0.));
#409=DIRECTION('',(0.,-1.,0.));
#410=DIRECTION('',(4.,0.,0.));
#411=DIRECTION('',(0.,0.,-1.));
#412=DIRECTION('',(0.,1.,0.));
#413=DIRECTION('',(-19.5,0.,0.));
#414=DIRECTION('',(0.,2.,0.));
#415=DIRECTION('',(4.00000000000001,4.,0.));
#416=DIRECTION('',(4.,-4.,0.));
#417=DIRECTION('',(0.,2.,0.));
#418=DIRECTION('',(1.36642833800019E-016,1.,0.));
#419=DIRECTION('',(1.,-1.36642833800019E-016,0.));
#420=DIRECTION('',(0.,0.,60.));
#421=DIRECTION('',(0.,0.,60.));
#422=DIRECTION('',(19.5,0.,0.));
#423=DIRECTION('',(0.,1.,0.));
#424=DIRECTION('',(-4.,0.,0.));
#425=DIRECTION('',(0.,1.,0.));
#426=DIRECTION('',(-4.,0.,0.));
#427=DIRECTION('',(1.,0.,0.));
#428=DIRECTION('',(0.,-1.,0.));
#429=DIRECTION('',(0.,-2.,0.));
#430=DIRECTION('',(0.,0.,60.));
#431=DIRECTION('',(0.,0.,1.));
#432=DIRECTION('',(0.,-1.,0.));
#433=DIRECTION('',(0.,-2.,0.));
#434=DIRECTION('',(-4.,4.,0.));
#435=DIRECTION('',(-4.00000000000001,-4.,0.));
#436=DIRECTION('',(-1.,0.,0.));
#437=DIRECTION('',(0.,1.,0.));
#438=DIRECTION('',(0.,0.,60.));
#439=DIRECTION('',(-0.707106781186548,-0.707106781186548,0.));
#440=DIRECTION('',(-0.707106781186548,0.707106781186548,0.));
#441=DIRECTION('',(0.707106781186547,-0.707106781186548,0.));
#442=DIRECTION('',(-0.707106781186548,-0.707106781186547,0.));
#443=DIRECTION('',(0.,-1.,0.));
#444=DIRECTION('',(1.,0.,0.));
#445=DIRECTION('',(0.,-1.,0.));
#446=DIRECTION('',(1.,0.,0.));
#447=DIRECTION('',(0.,0.,1.));
#448=DIRECTION('',(1.,0.,0.));
#449=DIRECTION('',(0.,0.,1.));
#450=DIRECTION('',(1.,0.,0.));
#451=AXIS2_PLACEMENT_3D('',#491,#401,#402);
#452=AXIS2_PLACEMENT_3D('',#501,#407,#408);
#453=AXIS2_PLACEMENT_3D('',#503,#409,#410);
#454=AXIS2_PLACEMENT_3D('',#504,#411,#412);
#455=AXIS2_PLACEMENT_3D('',#514,#418,#419);
#456=AXIS2_PLACEMENT_3D('',#521,#423,#424);
#457=AXIS2_PLACEMENT_3D('',#523,#425,#426);
#458=AXIS2_PLACEMENT_3D('',#524,#427,#428);
#459=AXIS2_PLACEMENT_3D('',#528,#431,#432);
#460=AXIS2_PLACEMENT_3D('',#533,#436,#437);
#461=AXIS2_PLACEMENT_3D('',#535,#439,#440);
#462=AXIS2_PLACEMENT_3D('',#536,#441,#442);
#463=AXIS2_PLACEMENT_3D('',#537,#443,#444);
#464=AXIS2_PLACEMENT_3D('',#538,#445,#446);
#465=AXIS2_PLACEMENT_3D('',#539,#447,#448);
#466=AXIS2_PLACEMENT_3D('',#540,#449,#450);
#467=PLANE('',#451);
#468=PLANE('',#454);
#469=PLANE('',#455);
#470=PLANE('',#458);
#471=PLANE('',#459);
#472=PLANE('',#460);
#473=PLANE('',#461);
#474=PLANE('',#462);
#475=ADVANCED_FACE('',(#385,#386,#387),#467,.T.);
#476=ADVANCED_FACE('',(#388),#468,.T.);
#477=ADVANCED_FACE('',(#389,#390,#391),#469,.T.);
#478=ADVANCED_FACE('',(#392),#470,.T.);
#479=ADVANCED_FACE('',(#393),#471,.T.);
#480=ADVANCED_FACE('',(#394),#472,.T.);
#481=ADVANCED_FACE('',(#395),#473,.T.);
#482=ADVANCED_FACE('',(#396),#474,.T.);
#483=ADVANCED_FACE('',(#397,#398),#245,.F.);
#484=ADVANCED_FACE('',(#399,#400),#246,.F.);
#485=MANIFOLD_SOLID_BREP('Solid',#244);
#486=GEOMETRIC_SET('Vertexshell',(#487,#488,#489,#490));
#487=CARTESIAN_POINT('',(0.,10.7,50.));
#488=CARTESIAN_POINT('',(0.,12.,50.));
#489=CARTESIAN_POINT('',(0.,10.7,10.));
#490=CARTESIAN_POINT('',(0.,12.,10.));
#491=CARTESIAN_POINT('',(-5.75,0.,0.));
#492=CARTESIAN_POINT('',(-5.75,0.,0.));
#493=CARTESIAN_POINT('',(5.75,0.,0.));
#494=CARTESIAN_POINT('',(-5.75,0.,0.));
#495=CARTESIAN_POINT('',(5.75,0.,60.));
#496=CARTESIAN_POINT('',(5.75,0.,0.));
#497=CARTESIAN_POINT('',(-5.75,0.,60.));
#498=CARTESIAN_POINT('',(5.75,0.,60.));
#499=CARTESIAN_POINT('',(-5.75,0.,0.));
#500=CARTESIAN_POINT('',(4.,0.,50.));
#501=CARTESIAN_POINT('',(0.,0.,50.));
#502=CARTESIAN_POINT('',(4.,0.,10.));
#503=CARTESIAN_POINT('',(0.,0.,10.));
#504=CARTESIAN_POINT('',(9.75000000000001,6.,0.));
#505=CARTESIAN_POINT('',(9.75000000000001,6.,0.));
#506=CARTESIAN_POINT('',(-9.75,6.,0.));
#507=CARTESIAN_POINT('',(9.75000000000001,6.,0.));
#508=CARTESIAN_POINT('',(9.75000000000001,4.,0.));
#509=CARTESIAN_POINT('',(9.75000000000001,4.,0.));
#510=CARTESIAN_POINT('',(5.75,0.,0.));
#511=CARTESIAN_POINT('',(-9.75,4.,0.));
#512=CARTESIAN_POINT('',(-9.75,4.,0.));
#513=CARTESIAN_POINT('',(-9.75,4.,0.));
#514=CARTESIAN_POINT('',(9.75000000000001,6.,0.));
#515=CARTESIAN_POINT('',(9.75000000000001,6.,60.));
#516=CARTESIAN_POINT('',(9.75000000000001,6.,0.));
#517=CARTESIAN_POINT('',(-9.75,6.,60.));
#518=CARTESIAN_POINT('',(-9.75,6.,0.));
#519=CARTESIAN_POINT('',(-9.75,6.,60.));
#520=CARTESIAN_POINT('',(-4.,6.,50.));
#521=CARTESIAN_POINT('',(0.,6.,50.));
#522=CARTESIAN_POINT('',(-4.,6.,10.));
#523=CARTESIAN_POINT('',(0.,6.,10.));
#524=CARTESIAN_POINT('',(9.75000000000001,6.,60.));
#525=CARTESIAN_POINT('',(9.75000000000001,4.,60.));
#526=CARTESIAN_POINT('',(9.75000000000001,6.,60.));
#527=CARTESIAN_POINT('',(9.75000000000001,4.,0.));
#528=CARTESIAN_POINT('',(-9.75,6.,60.));
#529=CARTESIAN_POINT('',(-9.75,4.,60.));
#530=CARTESIAN_POINT('',(-9.75,6.,60.));
#531=CARTESIAN_POINT('',(-5.75,0.,60.));
#532=CARTESIAN_POINT('',(9.75000000000001,4.,60.));
#533=CARTESIAN_POINT('',(-9.75,6.,60.));
#534=CARTESIAN_POINT('',(-9.75,4.,0.));
#535=CARTESIAN_POINT('',(-5.75,0.,60.));
#536=CARTESIAN_POINT('',(9.75000000000001,4.,60.));
#537=CARTESIAN_POINT('',(0.,6.,50.));
#538=CARTESIAN_POINT('',(0.,6.,10.));
#539=CARTESIAN_POINT('',(0.,0.,0.));
#540=CARTESIAN_POINT('',(121.814850779813,59.0254526641138,4.15126492647236));
#541=SHAPE_REPRESENTATION('RootProduct',(#466),#560);
#542=SHAPE_REPRESENTATION('HiCADMultiBody',(#486,#485,#465),#561);
#543=PRODUCT_DEFINITION_SHAPE('','',#547);
#544=PRODUCT_DEFINITION_SHAPE('','',#548);
#545=PRODUCT_DEFINITION_SHAPE('',$,#13);
#546=PRODUCT_DEFINITION_CONTEXT('part definition',#552,'');
#547=PRODUCT_DEFINITION('','',#549,#546);
#548=PRODUCT_DEFINITION('','',#550,#546);
#549=PRODUCT_DEFINITION_FORMATION('','',#554);
#550=PRODUCT_DEFINITION_FORMATION('','',#555);
#551=APPLICATION_PROTOCOL_DEFINITION('international standard',
'automotive_design',2003,#552);
#552=APPLICATION_CONTEXT(
'Core Data for Automotive Mechanical Design Process');
#553=PRODUCT_CONTEXT('part definition',#552,'');
#554=PRODUCT('Root','Root','',(#553));
#555=PRODUCT('122635Sleufmoer vlak 8 en 10 - 2x M8 L=60BOIKON',
'122635Sleufmoer vlak 8 en 10 - 2x M8 L=60BOIKON','',(#553));
#556=SHAPE_DEFINITION_REPRESENTATION(#543,#541);
#557=SHAPE_DEFINITION_REPRESENTATION(#544,#542);
#558=PRODUCT_RELATED_PRODUCT_CATEGORY('','',(#554,#555));
#559=UNCERTAINTY_MEASURE_WITH_UNIT(LENGTH_MEASURE(0.001),#562,
'DISTANCE_ACCURACY_VALUE',
'Maximum model space distance between geometric entities at asserted co
nnectivities');
#560=(
GEOMETRIC_REPRESENTATION_CONTEXT(3)
GLOBAL_UNCERTAINTY_ASSIGNED_CONTEXT((#559))
GLOBAL_UNIT_ASSIGNED_CONTEXT((#562,#564,#567))
REPRESENTATION_CONTEXT('Default Context','3D')
);
#561=(
GEOMETRIC_REPRESENTATION_CONTEXT(3)
GLOBAL_UNCERTAINTY_ASSIGNED_CONTEXT((#559))
GLOBAL_UNIT_ASSIGNED_CONTEXT((#562,#564,#567))
REPRESENTATION_CONTEXT('Default Context','3D')
);
#562=(
LENGTH_UNIT()
NAMED_UNIT(*)
SI_UNIT(.MILLI.,.METRE.)
);
#563=DIMENSIONAL_EXPONENTS(0.,0.,0.,0.,0.,0.,0.);
#564=(
CONVERSION_BASED_UNIT('degree',#566)
NAMED_UNIT(#563)
PLANE_ANGLE_UNIT()
);
#565=(
NAMED_UNIT(*)
PLANE_ANGLE_UNIT()
SI_UNIT($,.RADIAN.)
);
#566=PLANE_ANGLE_MEASURE_WITH_UNIT(PLANE_ANGLE_MEASURE(0.01745329252),#565);
#567=(
NAMED_UNIT(*)
SI_UNIT($,.STERADIAN.)
SOLID_ANGLE_UNIT()
);
ENDSEC;
END-ISO-10303-21;
