ISO-10303-21;
HEADER;
/* Generated by software containing ST-Developer
 * from STEP Tools, Inc. (www.steptools.com) 
 */
/* OPTION: using custom schema-name function */

FILE_DESCRIPTION(
/* description */ (''),
/* implementation_level */ '2;1');

FILE_NAME(
/* name */ '129005',
/* time_stamp */ '2014-10-06T13:41:18+02:00',
/* author */ (''),
/* organization */ (''),
/* preprocessor_version */ 'ST-DEVELOPER v14',
/* originating_system */ 'HiCAD 2013 1802.4 Build 509',
/* authorisation */ '');

FILE_SCHEMA (('AUTOMOTIVE_DESIGN { 1 0 10303 214 1 1 1 1 }'));
ENDSEC;

DATA;
#10=ITEM_DEFINED_TRANSFORMATION('','',#113,#114);
#11=(
REPRESENTATION_RELATIONSHIP('','',#137,#136)
REPRESENTATION_RELATIONSHIP_WITH_TRANSFORMATION(#10)
SHAPE_REPRESENTATION_RELATIONSHIP()
);
#12=CONTEXT_DEPENDENT_SHAPE_REPRESENTATION(#11,#140);
#13=NEXT_ASSEMBLY_USAGE_OCCURRENCE(
'129005Afdekkap voor inwendige verbinding GRIJSBOIKON',
'129005Afdekkap voor inwendige verbinding GRIJSBOIKON','',#142,#143,$);
#14=DRAUGHTING_PRE_DEFINED_CURVE_FONT('continuous');
#15=DRAUGHTING_PRE_DEFINED_CURVE_FONT('continuous');
#16=DRAUGHTING_PRE_DEFINED_CURVE_FONT('continuous');
#17=DRAUGHTING_PRE_DEFINED_CURVE_FONT('continuous');
#18=DRAUGHTING_PRE_DEFINED_CURVE_FONT('continuous');
#19=DRAUGHTING_PRE_DEFINED_CURVE_FONT('continuous');
#20=CURVE_STYLE(' ',#14,POSITIVE_LENGTH_MEASURE(0.352777777777778),#45);
#21=CURVE_STYLE(' ',#15,POSITIVE_LENGTH_MEASURE(0.352777777777778),#46);
#22=CURVE_STYLE(' ',#16,POSITIVE_LENGTH_MEASURE(0.352777777777778),#47);
#23=CURVE_STYLE(' ',#17,POSITIVE_LENGTH_MEASURE(0.352777777777778),#48);
#24=CURVE_STYLE(' ',#18,POSITIVE_LENGTH_MEASURE(0.352777777777778),#49);
#25=CURVE_STYLE(' ',#19,POSITIVE_LENGTH_MEASURE(0.352777777777778),#50);
#26=OVER_RIDING_STYLED_ITEM('Edge Colour',(#33),#72,#51);
#27=OVER_RIDING_STYLED_ITEM('Edge Colour',(#34),#72,#51);
#28=OVER_RIDING_STYLED_ITEM('Edge Colour',(#35),#73,#51);
#29=OVER_RIDING_STYLED_ITEM('Edge Colour',(#36),#74,#51);
#30=OVER_RIDING_STYLED_ITEM('Edge Colour',(#37),#73,#51);
#31=OVER_RIDING_STYLED_ITEM('Edge Colour',(#38),#74,#51);
#32=PRESENTATION_STYLE_ASSIGNMENT((#39));
#33=PRESENTATION_STYLE_ASSIGNMENT((#20));
#34=PRESENTATION_STYLE_ASSIGNMENT((#21));
#35=PRESENTATION_STYLE_ASSIGNMENT((#22));
#36=PRESENTATION_STYLE_ASSIGNMENT((#23));
#37=PRESENTATION_STYLE_ASSIGNMENT((#24));
#38=PRESENTATION_STYLE_ASSIGNMENT((#25));
#39=SURFACE_STYLE_USAGE(.BOTH.,#40);
#40=SURFACE_SIDE_STYLE('',(#41));
#41=SURFACE_STYLE_FILL_AREA(#42);
#42=FILL_AREA_STYLE('',(#43));
#43=FILL_AREA_STYLE_COLOUR('',#44);
#44=COLOUR_RGB('',0.921568989753723,0.921568989753723,0.921568989753723);
#45=COLOUR_RGB('',0.,0.,0.);
#46=COLOUR_RGB('',0.,0.,0.);
#47=COLOUR_RGB('',0.,0.,0.);
#48=COLOUR_RGB('',0.,0.,0.);
#49=COLOUR_RGB('',0.,0.,0.);
#50=COLOUR_RGB('',0.,0.,0.);
#51=STYLED_ITEM('Solid Colour',(#32),#120);
#52=MECHANICAL_DESIGN_GEOMETRIC_PRESENTATION_REPRESENTATION(
'Container for Styled_item',(#51,#26,#27,#28,#29,#30,#31),#155);
#53=PRESENTATION_LAYER_ASSIGNMENT('APPLE','1',(#121,#120));
#54=CLOSED_SHELL('',(#116,#117,#118,#119));
#55=SPHERICAL_SURFACE('',#112,17.45);
#56=PLANE('',#110);
#57=CYLINDRICAL_SURFACE('',#108,2.75);
#58=VERTEX_LOOP('',#69);
#59=ORIENTED_EDGE('',*,*,#72,.T.);
#60=ORIENTED_EDGE('',*,*,#72,.F.);
#61=ORIENTED_EDGE('',*,*,#73,.T.);
#62=ORIENTED_EDGE('',*,*,#74,.T.);
#63=ORIENTED_EDGE('',*,*,#73,.F.);
#64=ORIENTED_EDGE('',*,*,#74,.F.);
#65=CIRCLE('',#107,2.75);
#66=CIRCLE('',#109,2.75);
#67=CIRCLE('',#111,9.);
#68=VERTEX_POINT('',#124);
#69=VERTEX_POINT('',#126);
#70=VERTEX_POINT('',#128);
#71=VERTEX_POINT('',#131);
#72=EDGE_CURVE('',#68,#68,#65,.T.);
#73=EDGE_CURVE('',#70,#70,#66,.T.);
#74=EDGE_CURVE('',#71,#71,#67,.T.);
#75=EDGE_LOOP('',(#59));
#76=EDGE_LOOP('',(#60));
#77=EDGE_LOOP('',(#61));
#78=EDGE_LOOP('',(#62));
#79=EDGE_LOOP('',(#63));
#80=EDGE_LOOP('',(#64));
#81=FACE_BOUND('',#75,.T.);
#82=FACE_BOUND('',#58,.T.);
#83=FACE_BOUND('',#76,.T.);
#84=FACE_BOUND('',#77,.T.);
#85=FACE_BOUND('',#78,.T.);
#86=FACE_BOUND('',#79,.T.);
#87=FACE_BOUND('',#80,.T.);
#88=DIRECTION('',(0.,1.,0.));
#89=DIRECTION('',(1.,0.,0.));
#90=DIRECTION('',(0.,-1.,0.));
#91=DIRECTION('',(2.75,0.,0.));
#92=DIRECTION('',(0.,1.,0.));
#93=DIRECTION('',(1.,0.,0.));
#94=DIRECTION('',(0.,-1.,0.));
#95=DIRECTION('',(2.75,0.,0.));
#96=DIRECTION('',(0.,-1.,0.));
#97=DIRECTION('',(-1.,0.,0.));
#98=DIRECTION('',(0.,-1.,0.));
#99=DIRECTION('',(9.,0.,0.));
#100=DIRECTION('',(0.,0.,1.));
#101=DIRECTION('',(1.,0.,0.));
#102=DIRECTION('',(0.,0.,1.));
#103=DIRECTION('',(1.,0.,0.));
#104=DIRECTION('',(0.,0.,1.));
#105=DIRECTION('',(1.,0.,0.));
#106=AXIS2_PLACEMENT_3D('',#123,#88,#89);
#107=AXIS2_PLACEMENT_3D('',#125,#90,#91);
#108=AXIS2_PLACEMENT_3D('',#127,#92,#93);
#109=AXIS2_PLACEMENT_3D('',#129,#94,#95);
#110=AXIS2_PLACEMENT_3D('',#130,#96,#97);
#111=AXIS2_PLACEMENT_3D('',#132,#98,#99);
#112=AXIS2_PLACEMENT_3D('',#133,#100,#101);
#113=AXIS2_PLACEMENT_3D('',#134,#102,#103);
#114=AXIS2_PLACEMENT_3D('',#135,#104,#105);
#115=CONICAL_SURFACE('',#106,2.75,30.0000000000001);
#116=ADVANCED_FACE('',(#81,#82),#115,.T.);
#117=ADVANCED_FACE('',(#83,#84),#57,.T.);
#118=ADVANCED_FACE('',(#85,#86),#56,.T.);
#119=ADVANCED_FACE('',(#87),#55,.T.);
#120=MANIFOLD_SOLID_BREP('Solid',#54);
#121=GEOMETRIC_SET('Vertexshell',(#122));
#122=CARTESIAN_POINT('',(0.,0.,0.));
#123=CARTESIAN_POINT('',(0.,-16.7368602791856,0.));
#124=CARTESIAN_POINT('',(2.75,-16.7368602791856,0.));
#125=CARTESIAN_POINT('',(0.,-16.7368602791856,0.));
#126=CARTESIAN_POINT('',(0.,-21.5,0.));
#127=CARTESIAN_POINT('',(0.,-16.7368602791856,0.));
#128=CARTESIAN_POINT('',(2.75,0.,0.));
#129=CARTESIAN_POINT('',(0.,0.,0.));
#130=CARTESIAN_POINT('',(2.75,0.,0.));
#131=CARTESIAN_POINT('',(9.,0.,0.));
#132=CARTESIAN_POINT('',(0.,0.,0.));
#133=CARTESIAN_POINT('',(0.,-14.95,0.));
#134=CARTESIAN_POINT('',(0.,0.,0.));
#135=CARTESIAN_POINT('',(237.777695026421,242.323838264433,403.350917763906));
#136=SHAPE_REPRESENTATION('RootProduct',(#114),#155);
#137=SHAPE_REPRESENTATION('HiCADMultiBody',(#121,#120,#113),#156);
#138=PRODUCT_DEFINITION_SHAPE('','',#142);
#139=PRODUCT_DEFINITION_SHAPE('','',#143);
#140=PRODUCT_DEFINITION_SHAPE('',$,#13);
#141=PRODUCT_DEFINITION_CONTEXT('part definition',#147,'');
#142=PRODUCT_DEFINITION('','',#144,#141);
#143=PRODUCT_DEFINITION('','',#145,#141);
#144=PRODUCT_DEFINITION_FORMATION('','',#149);
#145=PRODUCT_DEFINITION_FORMATION('','',#150);
#146=APPLICATION_PROTOCOL_DEFINITION('international standard',
'automotive_design',2003,#147);
#147=APPLICATION_CONTEXT(
'Core Data for Automotive Mechanical Design Process');
#148=PRODUCT_CONTEXT('part definition',#147,'');
#149=PRODUCT('Root','Root','',(#148));
#150=PRODUCT('129005Afdekkap voor inwendige verbinding GRIJSBOIKON',
'129005Afdekkap voor inwendige verbinding GRIJSBOIKON','',(#148));
#151=SHAPE_DEFINITION_REPRESENTATION(#138,#136);
#152=SHAPE_DEFINITION_REPRESENTATION(#139,#137);
#153=PRODUCT_RELATED_PRODUCT_CATEGORY('','',(#149,#150));
#154=UNCERTAINTY_MEASURE_WITH_UNIT(LENGTH_MEASURE(0.001),#157,
'DISTANCE_ACCURACY_VALUE',
'Maximum model space distance between geometric entities at asserted co
nnectivities');
#155=(
GEOMETRIC_REPRESENTATION_CONTEXT(3)
GLOBAL_UNCERTAINTY_ASSIGNED_CONTEXT((#154))
GLOBAL_UNIT_ASSIGNED_CONTEXT((#157,#159,#162))
REPRESENTATION_CONTEXT('Default Context','3D')
);
#156=(
GEOMETRIC_REPRESENTATION_CONTEXT(3)
GLOBAL_UNCERTAINTY_ASSIGNED_CONTEXT((#154))
GLOBAL_UNIT_ASSIGNED_CONTEXT((#157,#159,#162))
REPRESENTATION_CONTEXT('Default Context','3D')
);
#157=(
LENGTH_UNIT()
NAMED_UNIT(*)
SI_UNIT(.MILLI.,.METRE.)
);
#158=DIMENSIONAL_EXPONENTS(0.,0.,0.,0.,0.,0.,0.);
#159=(
CONVERSION_BASED_UNIT('degree',#161)
NAMED_UNIT(#158)
PLANE_ANGLE_UNIT()
);
#160=(
NAMED_UNIT(*)
PLANE_ANGLE_UNIT()
SI_UNIT($,.RADIAN.)
);
#161=PLANE_ANGLE_MEASURE_WITH_UNIT(PLANE_ANGLE_MEASURE(0.01745329252),#160);
#162=(
NAMED_UNIT(*)
SI_UNIT($,.STERADIAN.)
SOLID_ANGLE_UNIT()
);
ENDSEC;
END-ISO-10303-21;
