ISO-10303-21;
HEADER;
/* Generated by software containing ST-Developer
 * from STEP Tools, Inc. (www.steptools.com) 
 */
/* OPTION: using custom schema-name function */

FILE_DESCRIPTION(
/* description */ (''),
/* implementation_level */ '2;1');

FILE_NAME(
/* name */ '140252',
/* time_stamp */ '2014-10-06T13:32:13+02:00',
/* author */ (''),
/* organization */ (''),
/* preprocessor_version */ 'ST-DEVELOPER v14',
/* originating_system */ 'HiCAD 2013 1802.4 Build 509',
/* authorisation */ '');

FILE_SCHEMA (('AUTOMOTIVE_DESIGN { 1 0 10303 214 1 1 1 1 }'));
ENDSEC;

DATA;
#10=ITEM_DEFINED_TRANSFORMATION('','',#74,#75);
#11=(
REPRESENTATION_RELATIONSHIP('','',#24,#81)
REPRESENTATION_RELATIONSHIP_WITH_TRANSFORMATION(#10)
SHAPE_REPRESENTATION_RELATIONSHIP()
);
#12=CONTEXT_DEPENDENT_SHAPE_REPRESENTATION(#11,#84);
#13=NEXT_ASSEMBLY_USAGE_OCCURRENCE(
'140252RVS rondstaf rond 9.5 T-303 L=3mtrBOIKON0',
'140252RVS rondstaf rond 9.5 T-303 L=3mtrBOIKON0','',#86,#87,$);
#14=PRESENTATION_STYLE_ASSIGNMENT((#15));
#15=SURFACE_STYLE_USAGE(.BOTH.,#16);
#16=SURFACE_SIDE_STYLE('',(#17));
#17=SURFACE_STYLE_FILL_AREA(#18);
#18=FILL_AREA_STYLE('',(#19));
#19=FILL_AREA_STYLE_COLOUR('',#20);
#20=COLOUR_RGB('',0.,0.,0.133332997560501);
#21=STYLED_ITEM('Solid Colour',(#14),#80);
#22=MECHANICAL_DESIGN_GEOMETRIC_PRESENTATION_REPRESENTATION(
'Container for Styled_item',(#21),#99);
#23=PRESENTATION_LAYER_ASSIGNMENT('APPLE','1',(#80));
#24=ADVANCED_BREP_SHAPE_REPRESENTATION('Body',(#80,#74),#100);
#25=CLOSED_SHELL('',(#77,#78,#79));
#26=PLANE('',#72);
#27=PLANE('',#73);
#28=ORIENTED_EDGE('',*,*,#36,.F.);
#29=ORIENTED_EDGE('',*,*,#37,.T.);
#30=ORIENTED_EDGE('',*,*,#36,.T.);
#31=ORIENTED_EDGE('',*,*,#37,.F.);
#32=CIRCLE('',#70,4.75);
#33=CIRCLE('',#71,4.74999999999982);
#34=VERTEX_POINT('',#61);
#35=VERTEX_POINT('',#63);
#36=EDGE_CURVE('',#34,#34,#32,.T.);
#37=EDGE_CURVE('',#35,#35,#33,.T.);
#38=EDGE_LOOP('',(#28));
#39=EDGE_LOOP('',(#29));
#40=EDGE_LOOP('',(#30));
#41=EDGE_LOOP('',(#31));
#42=FACE_BOUND('',#38,.T.);
#43=FACE_BOUND('',#39,.T.);
#44=FACE_BOUND('',#40,.T.);
#45=FACE_BOUND('',#41,.T.);
#46=DIRECTION('',(-1.,0.,-1.08949886149882E-016));
#47=DIRECTION('',(-1.07701740172091E-016,0.150933932239701,0.988543852390303));
#48=DIRECTION('',(-1.,1.16085417544927E-016,-1.77242805196552E-017));
#49=DIRECTION('',(0.,0.716936178138695,4.69558329885392));
#50=DIRECTION('',(-1.,-1.43337684445359E-014,-9.46572396720159E-014));
#51=DIRECTION('',(-4.54747350886464E-013,0.716936178138553,4.69558329885376));
#52=DIRECTION('',(-1.,1.11022302462516E-016,-5.08852219619863E-017));
#53=DIRECTION('',(1.11022302462516E-016,1.,0.));
#54=DIRECTION('',(1.,-1.11022302462516E-016,5.08852219619863E-017));
#55=DIRECTION('',(-1.11022302462516E-016,-1.,0.));
#56=DIRECTION('',(0.,0.,1.));
#57=DIRECTION('',(1.,0.,0.));
#58=DIRECTION('',(1.,0.,0.));
#59=DIRECTION('',(0.,0.,-1.));
#60=CARTESIAN_POINT('',(3000.,4.54747350886464E-013,7.8159700933611E-013));
#61=CARTESIAN_POINT('',(0.,0.71693617813915,4.69558329885437));
#62=CARTESIAN_POINT('',(0.,4.54747350886464E-013,4.54747350886464E-013));
#63=CARTESIAN_POINT('',(3000.,0.716936178139008,4.69558329885454));
#64=CARTESIAN_POINT('',(3000.,4.54747350886464E-013,7.8159700933611E-013));
#65=CARTESIAN_POINT('',(0.,0.71693617813915,4.69558329885437));
#66=CARTESIAN_POINT('',(3000.,0.716936178139008,4.69558329885454));
#67=CARTESIAN_POINT('',(0.,0.,0.));
#68=CARTESIAN_POINT('',(94.3944027935258,166.703845565492,3000.));
#69=AXIS2_PLACEMENT_3D('',#60,#46,#47);
#70=AXIS2_PLACEMENT_3D('',#62,#48,#49);
#71=AXIS2_PLACEMENT_3D('',#64,#50,#51);
#72=AXIS2_PLACEMENT_3D('',#65,#52,#53);
#73=AXIS2_PLACEMENT_3D('',#66,#54,#55);
#74=AXIS2_PLACEMENT_3D('',#67,#56,#57);
#75=AXIS2_PLACEMENT_3D('',#68,#58,#59);
#76=CYLINDRICAL_SURFACE('',#69,4.74999999999982);
#77=ADVANCED_FACE('',(#42,#43),#76,.T.);
#78=ADVANCED_FACE('',(#44),#26,.T.);
#79=ADVANCED_FACE('',(#45),#27,.T.);
#80=MANIFOLD_SOLID_BREP('Solid',#25);
#81=SHAPE_REPRESENTATION('RootProduct',(#75),#99);
#82=PRODUCT_DEFINITION_SHAPE('','',#86);
#83=PRODUCT_DEFINITION_SHAPE('','',#87);
#84=PRODUCT_DEFINITION_SHAPE('',$,#13);
#85=PRODUCT_DEFINITION_CONTEXT('part definition',#91,'');
#86=PRODUCT_DEFINITION('','',#88,#85);
#87=PRODUCT_DEFINITION('','',#89,#85);
#88=PRODUCT_DEFINITION_FORMATION('','',#93);
#89=PRODUCT_DEFINITION_FORMATION('','',#94);
#90=APPLICATION_PROTOCOL_DEFINITION('international standard',
'automotive_design',2003,#91);
#91=APPLICATION_CONTEXT(
'Core Data for Automotive Mechanical Design Process');
#92=PRODUCT_CONTEXT('part definition',#91,'');
#93=PRODUCT('Root','Root','',(#92));
#94=PRODUCT('140252RVS rondstaf rond 9.5 T-303 L=3mtrBOIKON0',
'140252RVS rondstaf rond 9.5 T-303 L=3mtrBOIKON0','',(#92));
#95=SHAPE_DEFINITION_REPRESENTATION(#82,#81);
#96=SHAPE_DEFINITION_REPRESENTATION(#83,#24);
#97=PRODUCT_RELATED_PRODUCT_CATEGORY('','',(#93,#94));
#98=UNCERTAINTY_MEASURE_WITH_UNIT(LENGTH_MEASURE(0.001),#101,
'DISTANCE_ACCURACY_VALUE',
'Maximum model space distance between geometric entities at asserted co
nnectivities');
#99=(
GEOMETRIC_REPRESENTATION_CONTEXT(3)
GLOBAL_UNCERTAINTY_ASSIGNED_CONTEXT((#98))
GLOBAL_UNIT_ASSIGNED_CONTEXT((#101,#103,#106))
REPRESENTATION_CONTEXT('Default Context','3D')
);
#100=(
GEOMETRIC_REPRESENTATION_CONTEXT(3)
GLOBAL_UNCERTAINTY_ASSIGNED_CONTEXT((#98))
GLOBAL_UNIT_ASSIGNED_CONTEXT((#101,#103,#106))
REPRESENTATION_CONTEXT('Default Context','3D')
);
#101=(
LENGTH_UNIT()
NAMED_UNIT(*)
SI_UNIT(.MILLI.,.METRE.)
);
#102=DIMENSIONAL_EXPONENTS(0.,0.,0.,0.,0.,0.,0.);
#103=(
CONVERSION_BASED_UNIT('degree',#105)
NAMED_UNIT(#102)
PLANE_ANGLE_UNIT()
);
#104=(
NAMED_UNIT(*)
PLANE_ANGLE_UNIT()
SI_UNIT($,.RADIAN.)
);
#105=PLANE_ANGLE_MEASURE_WITH_UNIT(PLANE_ANGLE_MEASURE(0.01745329252),#104);
#106=(
NAMED_UNIT(*)
SI_UNIT($,.STERADIAN.)
SOLID_ANGLE_UNIT()
);
ENDSEC;
END-ISO-10303-21;
