ISO-10303-21;
HEADER;
/* Generated by software containing ST-Developer
 * from STEP Tools, Inc. (www.steptools.com) 
 */
/* OPTION: using custom schema-name function */

FILE_DESCRIPTION(
/* description */ (''),
/* implementation_level */ '2;1');

FILE_NAME(
/* name */ '140505',
/* time_stamp */ '2014-10-06T15:45:45+02:00',
/* author */ (''),
/* organization */ (''),
/* preprocessor_version */ 'ST-DEVELOPER v14',
/* originating_system */ 'HiCAD 2013 1802.4 Build 509',
/* authorisation */ '');

FILE_SCHEMA (('AUTOMOTIVE_DESIGN { 1 0 10303 214 1 1 1 1 }'));
ENDSEC;

DATA;
#10=ITEM_DEFINED_TRANSFORMATION('','',#165,#166);
#11=(
REPRESENTATION_RELATIONSHIP('','',#79,#176)
REPRESENTATION_RELATIONSHIP_WITH_TRANSFORMATION(#10)
SHAPE_REPRESENTATION_RELATIONSHIP()
);
#12=CONTEXT_DEPENDENT_SHAPE_REPRESENTATION(#11,#179);
#13=NEXT_ASSEMBLY_USAGE_OCCURRENCE(
'140505Aanslagbuffer diam 25x12, M6x18BOIKON',
'140505Aanslagbuffer diam 25x12, M6x18BOIKON','',#181,#182,$);
#14=DRAUGHTING_PRE_DEFINED_CURVE_FONT('continuous');
#15=DRAUGHTING_PRE_DEFINED_CURVE_FONT('continuous');
#16=DRAUGHTING_PRE_DEFINED_CURVE_FONT('continuous');
#17=DRAUGHTING_PRE_DEFINED_CURVE_FONT('continuous');
#18=DRAUGHTING_PRE_DEFINED_CURVE_FONT('continuous');
#19=DRAUGHTING_PRE_DEFINED_CURVE_FONT('continuous');
#20=DRAUGHTING_PRE_DEFINED_CURVE_FONT('continuous');
#21=DRAUGHTING_PRE_DEFINED_CURVE_FONT('continuous');
#22=CURVE_STYLE(' ',#14,POSITIVE_LENGTH_MEASURE(0.352777777777778),#68);
#23=CURVE_STYLE(' ',#15,POSITIVE_LENGTH_MEASURE(0.352777777777778),#69);
#24=CURVE_STYLE(' ',#16,POSITIVE_LENGTH_MEASURE(0.352777777777778),#70);
#25=CURVE_STYLE(' ',#17,POSITIVE_LENGTH_MEASURE(0.352777777777778),#71);
#26=CURVE_STYLE(' ',#18,POSITIVE_LENGTH_MEASURE(0.352777777777778),#72);
#27=CURVE_STYLE(' ',#19,POSITIVE_LENGTH_MEASURE(0.352777777777778),#73);
#28=CURVE_STYLE(' ',#20,POSITIVE_LENGTH_MEASURE(0.352777777777778),#74);
#29=CURVE_STYLE(' ',#21,POSITIVE_LENGTH_MEASURE(0.352777777777778),#75);
#30=OVER_RIDING_STYLED_ITEM('Face Colour',(#41),#173,#76);
#31=OVER_RIDING_STYLED_ITEM('Face Colour',(#42),#174,#76);
#32=OVER_RIDING_STYLED_ITEM('Edge Colour',(#43),#99,#76);
#33=OVER_RIDING_STYLED_ITEM('Edge Colour',(#44),#100,#76);
#34=OVER_RIDING_STYLED_ITEM('Edge Colour',(#45),#99,#76);
#35=OVER_RIDING_STYLED_ITEM('Edge Colour',(#46),#101,#76);
#36=OVER_RIDING_STYLED_ITEM('Edge Colour',(#47),#101,#76);
#37=OVER_RIDING_STYLED_ITEM('Edge Colour',(#48),#100,#76);
#38=OVER_RIDING_STYLED_ITEM('Edge Colour',(#49),#102,#76);
#39=OVER_RIDING_STYLED_ITEM('Edge Colour',(#50),#102,#76);
#40=PRESENTATION_STYLE_ASSIGNMENT((#51));
#41=PRESENTATION_STYLE_ASSIGNMENT((#52));
#42=PRESENTATION_STYLE_ASSIGNMENT((#53));
#43=PRESENTATION_STYLE_ASSIGNMENT((#22));
#44=PRESENTATION_STYLE_ASSIGNMENT((#23));
#45=PRESENTATION_STYLE_ASSIGNMENT((#24));
#46=PRESENTATION_STYLE_ASSIGNMENT((#25));
#47=PRESENTATION_STYLE_ASSIGNMENT((#26));
#48=PRESENTATION_STYLE_ASSIGNMENT((#27));
#49=PRESENTATION_STYLE_ASSIGNMENT((#28));
#50=PRESENTATION_STYLE_ASSIGNMENT((#29));
#51=SURFACE_STYLE_USAGE(.BOTH.,#54);
#52=SURFACE_STYLE_USAGE(.BOTH.,#55);
#53=SURFACE_STYLE_USAGE(.BOTH.,#56);
#54=SURFACE_SIDE_STYLE('',(#57));
#55=SURFACE_SIDE_STYLE('',(#58));
#56=SURFACE_SIDE_STYLE('',(#59));
#57=SURFACE_STYLE_FILL_AREA(#60);
#58=SURFACE_STYLE_FILL_AREA(#61);
#59=SURFACE_STYLE_FILL_AREA(#62);
#60=FILL_AREA_STYLE('',(#63));
#61=FILL_AREA_STYLE('',(#64));
#62=FILL_AREA_STYLE('',(#65));
#63=FILL_AREA_STYLE_COLOUR('',#66);
#64=FILL_AREA_STYLE_COLOUR('',#67);
#65=FILL_AREA_STYLE_COLOUR('',#67);
#66=COLOUR_RGB('',0.32548999786377,0.305882006883621,0.352941006422043);
#67=COLOUR_RGB('',0.462745010852814,0.752941012382507,0.0705880001187325);
#68=COLOUR_RGB('',0.,0.,0.);
#69=COLOUR_RGB('',0.,0.,0.);
#70=COLOUR_RGB('',0.,0.,0.);
#71=COLOUR_RGB('',0.,0.,0.);
#72=COLOUR_RGB('',0.,0.,0.);
#73=COLOUR_RGB('',0.,0.,0.);
#74=COLOUR_RGB('',0.,0.,0.);
#75=COLOUR_RGB('',0.,0.,0.);
#76=STYLED_ITEM('Solid Colour',(#40),#175);
#77=MECHANICAL_DESIGN_GEOMETRIC_PRESENTATION_REPRESENTATION(
'Container for Styled_item',(#76,#30,#31,#32,#33,#34,#35,#36,#37,#38,#39),
#194);
#78=PRESENTATION_LAYER_ASSIGNMENT('APPLE','1',(#175));
#79=ADVANCED_BREP_SHAPE_REPRESENTATION('Body',(#175,#165),#195);
#80=CLOSED_SHELL('',(#170,#171,#172,#173,#174));
#81=CYLINDRICAL_SURFACE('',#159,12.5);
#82=CYLINDRICAL_SURFACE('',#162,2.3865);
#83=ORIENTED_EDGE('',*,*,#99,.F.);
#84=ORIENTED_EDGE('',*,*,#100,.F.);
#85=ORIENTED_EDGE('',*,*,#99,.T.);
#86=ORIENTED_EDGE('',*,*,#101,.T.);
#87=ORIENTED_EDGE('',*,*,#101,.F.);
#88=ORIENTED_EDGE('',*,*,#100,.T.);
#89=ORIENTED_EDGE('',*,*,#102,.T.);
#90=ORIENTED_EDGE('',*,*,#102,.F.);
#91=CIRCLE('',#157,12.5);
#92=CIRCLE('',#158,2.38650000000001);
#93=CIRCLE('',#160,12.5);
#94=CIRCLE('',#163,2.3865);
#95=VERTEX_POINT('',#142);
#96=VERTEX_POINT('',#144);
#97=VERTEX_POINT('',#147);
#98=VERTEX_POINT('',#151);
#99=EDGE_CURVE('',#95,#95,#91,.T.);
#100=EDGE_CURVE('',#96,#96,#92,.T.);
#101=EDGE_CURVE('',#97,#97,#93,.T.);
#102=EDGE_CURVE('',#98,#98,#94,.T.);
#103=EDGE_LOOP('',(#83));
#104=EDGE_LOOP('',(#84));
#105=EDGE_LOOP('',(#85));
#106=EDGE_LOOP('',(#86));
#107=EDGE_LOOP('',(#87));
#108=EDGE_LOOP('',(#88));
#109=EDGE_LOOP('',(#89));
#110=EDGE_LOOP('',(#90));
#111=FACE_BOUND('',#103,.T.);
#112=FACE_BOUND('',#104,.T.);
#113=FACE_BOUND('',#105,.T.);
#114=FACE_BOUND('',#106,.T.);
#115=FACE_BOUND('',#107,.T.);
#116=FACE_BOUND('',#108,.T.);
#117=FACE_BOUND('',#109,.T.);
#118=FACE_BOUND('',#110,.T.);
#119=DIRECTION('',(0.,0.,-1.));
#120=DIRECTION('',(0.,1.,0.));
#121=DIRECTION('',(0.,0.,1.));
#122=DIRECTION('',(0.,-12.5,0.));
#123=DIRECTION('',(0.,0.,-1.));
#124=DIRECTION('',(2.38650000000001,0.,0.));
#125=DIRECTION('',(0.,0.,1.));
#126=DIRECTION('',(0.,-1.,0.));
#127=DIRECTION('',(0.,0.,-1.));
#128=DIRECTION('',(0.,-12.5,0.));
#129=DIRECTION('',(0.,0.,1.));
#130=DIRECTION('',(0.,-1.,0.));
#131=DIRECTION('',(0.,0.,-1.));
#132=DIRECTION('',(0.,-1.,0.));
#133=DIRECTION('',(0.,0.,1.));
#134=DIRECTION('',(0.,-2.3865,0.));
#135=DIRECTION('',(0.,0.,-1.));
#136=DIRECTION('',(0.,1.,0.));
#137=DIRECTION('',(0.,0.,1.));
#138=DIRECTION('',(1.,0.,0.));
#139=DIRECTION('',(0.,0.,1.));
#140=DIRECTION('',(1.,0.,0.));
#141=CARTESIAN_POINT('',(-4.3272156116509,-8.55112652733658,0.));
#142=CARTESIAN_POINT('',(9.1727843883491,-7.55112652733658,0.));
#143=CARTESIAN_POINT('',(9.1727843883491,4.94887347266342,0.));
#144=CARTESIAN_POINT('',(11.5592843883491,4.94887347266342,0.));
#145=CARTESIAN_POINT('',(9.1727843883491,4.94887347266342,0.));
#146=CARTESIAN_POINT('',(9.1727843883491,4.94887347266342,0.));
#147=CARTESIAN_POINT('',(9.1727843883491,-7.55112652733658,12.));
#148=CARTESIAN_POINT('',(9.1727843883491,4.94887347266342,12.));
#149=CARTESIAN_POINT('',(-4.3272156116509,-8.55112652733658,12.));
#150=CARTESIAN_POINT('',(9.1727843883491,4.94887347266342,0.));
#151=CARTESIAN_POINT('',(9.1727843883491,2.56237347266342,-18.));
#152=CARTESIAN_POINT('',(9.1727843883491,4.94887347266342,-18.));
#153=CARTESIAN_POINT('',(9.1727843883491,2.56237347266342,-18.));
#154=CARTESIAN_POINT('',(0.,0.,0.));
#155=CARTESIAN_POINT('',(342.323551050887,118.944407406308,-27.6262292118474));
#156=AXIS2_PLACEMENT_3D('',#141,#119,#120);
#157=AXIS2_PLACEMENT_3D('',#143,#121,#122);
#158=AXIS2_PLACEMENT_3D('',#145,#123,#124);
#159=AXIS2_PLACEMENT_3D('',#146,#125,#126);
#160=AXIS2_PLACEMENT_3D('',#148,#127,#128);
#161=AXIS2_PLACEMENT_3D('',#149,#129,#130);
#162=AXIS2_PLACEMENT_3D('',#150,#131,#132);
#163=AXIS2_PLACEMENT_3D('',#152,#133,#134);
#164=AXIS2_PLACEMENT_3D('',#153,#135,#136);
#165=AXIS2_PLACEMENT_3D('',#154,#137,#138);
#166=AXIS2_PLACEMENT_3D('',#155,#139,#140);
#167=PLANE('',#156);
#168=PLANE('',#161);
#169=PLANE('',#164);
#170=ADVANCED_FACE('',(#111,#112),#167,.T.);
#171=ADVANCED_FACE('',(#113,#114),#81,.T.);
#172=ADVANCED_FACE('',(#115),#168,.T.);
#173=ADVANCED_FACE('',(#116,#117),#82,.T.);
#174=ADVANCED_FACE('',(#118),#169,.T.);
#175=MANIFOLD_SOLID_BREP('Solid',#80);
#176=SHAPE_REPRESENTATION('RootProduct',(#166),#194);
#177=PRODUCT_DEFINITION_SHAPE('','',#181);
#178=PRODUCT_DEFINITION_SHAPE('','',#182);
#179=PRODUCT_DEFINITION_SHAPE('',$,#13);
#180=PRODUCT_DEFINITION_CONTEXT('part definition',#186,'');
#181=PRODUCT_DEFINITION('','',#183,#180);
#182=PRODUCT_DEFINITION('','',#184,#180);
#183=PRODUCT_DEFINITION_FORMATION('','',#188);
#184=PRODUCT_DEFINITION_FORMATION('','',#189);
#185=APPLICATION_PROTOCOL_DEFINITION('international standard',
'automotive_design',2003,#186);
#186=APPLICATION_CONTEXT(
'Core Data for Automotive Mechanical Design Process');
#187=PRODUCT_CONTEXT('part definition',#186,'');
#188=PRODUCT('Root','Root','',(#187));
#189=PRODUCT('140505Aanslagbuffer diam 25x12, M6x18BOIKON',
'140505Aanslagbuffer diam 25x12, M6x18BOIKON','',(#187));
#190=SHAPE_DEFINITION_REPRESENTATION(#177,#176);
#191=SHAPE_DEFINITION_REPRESENTATION(#178,#79);
#192=PRODUCT_RELATED_PRODUCT_CATEGORY('','',(#188,#189));
#193=UNCERTAINTY_MEASURE_WITH_UNIT(LENGTH_MEASURE(0.001),#196,
'DISTANCE_ACCURACY_VALUE',
'Maximum model space distance between geometric entities at asserted co
nnectivities');
#194=(
GEOMETRIC_REPRESENTATION_CONTEXT(3)
GLOBAL_UNCERTAINTY_ASSIGNED_CONTEXT((#193))
GLOBAL_UNIT_ASSIGNED_CONTEXT((#196,#198,#201))
REPRESENTATION_CONTEXT('Default Context','3D')
);
#195=(
GEOMETRIC_REPRESENTATION_CONTEXT(3)
GLOBAL_UNCERTAINTY_ASSIGNED_CONTEXT((#193))
GLOBAL_UNIT_ASSIGNED_CONTEXT((#196,#198,#201))
REPRESENTATION_CONTEXT('Default Context','3D')
);
#196=(
LENGTH_UNIT()
NAMED_UNIT(*)
SI_UNIT(.MILLI.,.METRE.)
);
#197=DIMENSIONAL_EXPONENTS(0.,0.,0.,0.,0.,0.,0.);
#198=(
CONVERSION_BASED_UNIT('degree',#200)
NAMED_UNIT(#197)
PLANE_ANGLE_UNIT()
);
#199=(
NAMED_UNIT(*)
PLANE_ANGLE_UNIT()
SI_UNIT($,.RADIAN.)
);
#200=PLANE_ANGLE_MEASURE_WITH_UNIT(PLANE_ANGLE_MEASURE(0.01745329252),#199);
#201=(
NAMED_UNIT(*)
SI_UNIT($,.STERADIAN.)
SOLID_ANGLE_UNIT()
);
ENDSEC;
END-ISO-10303-21;
