ISO-10303-21;
HEADER;
/* Generated by software containing ST-Developer
 * from STEP Tools, Inc. (www.steptools.com) 
 */
/* OPTION: using custom schema-name function */

FILE_DESCRIPTION(
/* description */ (''),
/* implementation_level */ '2;1');

FILE_NAME(
/* name */ '141025',
/* time_stamp */ '2014-08-27T15:36:51+02:00',
/* author */ (''),
/* organization */ (''),
/* preprocessor_version */ 'ST-DEVELOPER v14',
/* originating_system */ 'HiCAD 2013 1802.4 Build 509',
/* authorisation */ '');

FILE_SCHEMA (('AUTOMOTIVE_DESIGN { 1 0 10303 214 1 1 1 1 }'));
ENDSEC;

DATA;
#10=ITEM_DEFINED_TRANSFORMATION('','',#168,#169);
#11=(
REPRESENTATION_RELATIONSHIP('','',#24,#183)
REPRESENTATION_RELATIONSHIP_WITH_TRANSFORMATION(#10)
SHAPE_REPRESENTATION_RELATIONSHIP()
);
#12=CONTEXT_DEPENDENT_SHAPE_REPRESENTATION(#11,#186);
#13=NEXT_ASSEMBLY_USAGE_OCCURRENCE(
'141025 - Klemrubber 4-6 sleuf 8 BOIKON',
'141025 - Klemrubber 4-6 sleuf 8 BOIKON','',#188,#189,$);
#14=PRESENTATION_STYLE_ASSIGNMENT((#15));
#15=SURFACE_STYLE_USAGE(.BOTH.,#16);
#16=SURFACE_SIDE_STYLE('',(#17));
#17=SURFACE_STYLE_FILL_AREA(#18);
#18=FILL_AREA_STYLE('',(#19));
#19=FILL_AREA_STYLE_COLOUR('',#20);
#20=COLOUR_RGB('',0.32548999786377,0.305882006883621,0.352941006422043);
#21=STYLED_ITEM('Solid Colour',(#14),#182);
#22=MECHANICAL_DESIGN_GEOMETRIC_PRESENTATION_REPRESENTATION(
'Container for Styled_item',(#21),#201);
#23=PRESENTATION_LAYER_ASSIGNMENT('1','1',(#182));
#24=ADVANCED_BREP_SHAPE_REPRESENTATION('Body',(#182,#168),#202);
#25=CLOSED_SHELL('',(#176,#177,#178,#179,#180,#181));
#26=ORIENTED_EDGE('',*,*,#82,.T.);
#27=ORIENTED_EDGE('',*,*,#83,.F.);
#28=ORIENTED_EDGE('',*,*,#84,.F.);
#29=ORIENTED_EDGE('',*,*,#85,.T.);
#30=ORIENTED_EDGE('',*,*,#86,.T.);
#31=ORIENTED_EDGE('',*,*,#87,.F.);
#32=ORIENTED_EDGE('',*,*,#82,.F.);
#33=ORIENTED_EDGE('',*,*,#88,.T.);
#34=ORIENTED_EDGE('',*,*,#89,.T.);
#35=ORIENTED_EDGE('',*,*,#90,.F.);
#36=ORIENTED_EDGE('',*,*,#86,.F.);
#37=ORIENTED_EDGE('',*,*,#91,.T.);
#38=ORIENTED_EDGE('',*,*,#84,.T.);
#39=ORIENTED_EDGE('',*,*,#92,.F.);
#40=ORIENTED_EDGE('',*,*,#89,.F.);
#41=ORIENTED_EDGE('',*,*,#93,.T.);
#42=ORIENTED_EDGE('',*,*,#92,.T.);
#43=ORIENTED_EDGE('',*,*,#83,.T.);
#44=ORIENTED_EDGE('',*,*,#87,.T.);
#45=ORIENTED_EDGE('',*,*,#90,.T.);
#46=ORIENTED_EDGE('',*,*,#93,.F.);
#47=ORIENTED_EDGE('',*,*,#91,.F.);
#48=ORIENTED_EDGE('',*,*,#88,.F.);
#49=ORIENTED_EDGE('',*,*,#85,.F.);
#50=VECTOR('',#108,1.);
#51=VECTOR('',#109,1.);
#52=VECTOR('',#110,1.);
#53=VECTOR('',#111,1.);
#54=VECTOR('',#114,1.);
#55=VECTOR('',#115,1.);
#56=VECTOR('',#116,1.);
#57=VECTOR('',#119,1.);
#58=VECTOR('',#120,1.);
#59=VECTOR('',#121,1.);
#60=VECTOR('',#124,1.);
#61=VECTOR('',#125,1.);
#62=LINE('',#137,#50);
#63=LINE('',#139,#51);
#64=LINE('',#141,#52);
#65=LINE('',#142,#53);
#66=LINE('',#146,#54);
#67=LINE('',#147,#55);
#68=LINE('',#148,#56);
#69=LINE('',#152,#57);
#70=LINE('',#153,#58);
#71=LINE('',#154,#59);
#72=LINE('',#156,#60);
#73=LINE('',#157,#61);
#74=VERTEX_POINT('',#135);
#75=VERTEX_POINT('',#136);
#76=VERTEX_POINT('',#138);
#77=VERTEX_POINT('',#140);
#78=VERTEX_POINT('',#144);
#79=VERTEX_POINT('',#145);
#80=VERTEX_POINT('',#150);
#81=VERTEX_POINT('',#151);
#82=EDGE_CURVE('',#74,#75,#62,.T.);
#83=EDGE_CURVE('',#76,#75,#63,.T.);
#84=EDGE_CURVE('',#77,#76,#64,.T.);
#85=EDGE_CURVE('',#77,#74,#65,.T.);
#86=EDGE_CURVE('',#78,#79,#66,.T.);
#87=EDGE_CURVE('',#75,#79,#67,.T.);
#88=EDGE_CURVE('',#74,#78,#68,.T.);
#89=EDGE_CURVE('',#80,#81,#69,.T.);
#90=EDGE_CURVE('',#79,#81,#70,.T.);
#91=EDGE_CURVE('',#78,#80,#71,.T.);
#92=EDGE_CURVE('',#81,#76,#72,.T.);
#93=EDGE_CURVE('',#80,#77,#73,.T.);
#94=EDGE_LOOP('',(#26,#27,#28,#29));
#95=EDGE_LOOP('',(#30,#31,#32,#33));
#96=EDGE_LOOP('',(#34,#35,#36,#37));
#97=EDGE_LOOP('',(#38,#39,#40,#41));
#98=EDGE_LOOP('',(#42,#43,#44,#45));
#99=EDGE_LOOP('',(#46,#47,#48,#49));
#100=FACE_BOUND('',#94,.T.);
#101=FACE_BOUND('',#95,.T.);
#102=FACE_BOUND('',#96,.T.);
#103=FACE_BOUND('',#97,.T.);
#104=FACE_BOUND('',#98,.T.);
#105=FACE_BOUND('',#99,.T.);
#106=DIRECTION('',(0.,-1.,-1.30841038223648E-017));
#107=DIRECTION('',(-1.,0.,0.));
#108=DIRECTION('',(-500.,0.,9.99200722162641E-015));
#109=DIRECTION('',(0.,0.,0.67299612976711));
#110=DIRECTION('',(-500.,0.,-9.76996261670138E-015));
#111=DIRECTION('',(0.,0.,0.67299612976709));
#112=DIRECTION('',(2.08569324791602E-017,-1.24512960929388E-014,1.));
#113=DIRECTION('',(0.,-1.,-1.24512960929388E-014));
#114=DIRECTION('',(-500.,0.,9.99200722162641E-015));
#115=DIRECTION('',(0.,13.6701705921939,1.70086167372574E-013));
#116=DIRECTION('',(0.,13.6701705921939,1.70086167372574E-013));
#117=DIRECTION('',(0.,0.866025403784445,-0.499999999999989));
#118=DIRECTION('',(0.866025403784445,0.,0.));
#119=DIRECTION('',(-500.,0.,4.08562073062058E-014));
#120=DIRECTION('',(0.,-1.2701705921869,-2.19999999994761));
#121=DIRECTION('',(0.,-1.2701705921869,-2.19999999994764));
#122=DIRECTION('',(6.24500451351651E-017,-0.122222222219421,-0.992502759893264));
#123=DIRECTION('',(0.,0.992502759893264,-0.122222222219421));
#124=DIRECTION('',(0.,-12.400000000007,1.52700387018033));
#125=DIRECTION('',(0.,-12.400000000007,1.52700387018038));
#126=DIRECTION('',(-1.,0.,4.62592926927148E-018));
#127=DIRECTION('',(0.,1.,0.));
#128=DIRECTION('',(1.,0.,-4.62592926927148E-018));
#129=DIRECTION('',(0.,-1.,0.));
#130=DIRECTION('',(0.,0.,1.));
#131=DIRECTION('',(1.,0.,0.));
#132=DIRECTION('',(1.,0.,0.));
#133=DIRECTION('',(0.,0.,-1.));
#134=CARTESIAN_POINT('',(500.,7.59999999999999,-1.89999999997377));
#135=CARTESIAN_POINT('',(500.,7.59999999999999,-1.89999999997377));
#136=CARTESIAN_POINT('',(0.,7.59999999999999,-1.89999999997376));
#137=CARTESIAN_POINT('',(500.,7.59999999999999,-1.89999999997377));
#138=CARTESIAN_POINT('',(0.,7.59999999999999,-2.57299612974087));
#139=CARTESIAN_POINT('',(0.,7.59999999999999,-2.57299612974087));
#140=CARTESIAN_POINT('',(500.,7.59999999999999,-2.57299612974086));
#141=CARTESIAN_POINT('',(500.,7.59999999999999,-2.57299612974086));
#142=CARTESIAN_POINT('',(500.,7.59999999999999,-2.57299612974086));
#143=CARTESIAN_POINT('',(500.,21.2701705921939,-1.8999999999736));
#144=CARTESIAN_POINT('',(500.,21.2701705921939,-1.8999999999736));
#145=CARTESIAN_POINT('',(0.,21.2701705921939,-1.89999999997359));
#146=CARTESIAN_POINT('',(500.,21.2701705921939,-1.8999999999736));
#147=CARTESIAN_POINT('',(0.,7.59999999999999,-1.89999999997376));
#148=CARTESIAN_POINT('',(500.,7.59999999999999,-1.89999999997377));
#149=CARTESIAN_POINT('',(500.,20.000000000007,-4.09999999992124));
#150=CARTESIAN_POINT('',(500.,20.000000000007,-4.09999999992124));
#151=CARTESIAN_POINT('',(0.,20.000000000007,-4.0999999999212));
#152=CARTESIAN_POINT('',(500.,20.000000000007,-4.09999999992124));
#153=CARTESIAN_POINT('',(0.,21.2701705921939,-1.89999999997359));
#154=CARTESIAN_POINT('',(500.,21.2701705921939,-1.8999999999736));
#155=CARTESIAN_POINT('',(500.,7.59999999999999,-2.57299612974086));
#156=CARTESIAN_POINT('',(0.,20.000000000007,-4.0999999999212));
#157=CARTESIAN_POINT('',(500.,20.000000000007,-4.09999999992124));
#158=CARTESIAN_POINT('',(0.,20.000000000007,-4.0999999999212));
#159=CARTESIAN_POINT('',(500.,7.59999999999999,-2.57299612974086));
#160=CARTESIAN_POINT('',(0.,0.,0.));
#161=CARTESIAN_POINT('',(3.03728933200566,4.30380820624998,500.));
#162=AXIS2_PLACEMENT_3D('',#134,#106,#107);
#163=AXIS2_PLACEMENT_3D('',#143,#112,#113);
#164=AXIS2_PLACEMENT_3D('',#149,#117,#118);
#165=AXIS2_PLACEMENT_3D('',#155,#122,#123);
#166=AXIS2_PLACEMENT_3D('',#158,#126,#127);
#167=AXIS2_PLACEMENT_3D('',#159,#128,#129);
#168=AXIS2_PLACEMENT_3D('',#160,#130,#131);
#169=AXIS2_PLACEMENT_3D('',#161,#132,#133);
#170=PLANE('',#162);
#171=PLANE('',#163);
#172=PLANE('',#164);
#173=PLANE('',#165);
#174=PLANE('',#166);
#175=PLANE('',#167);
#176=ADVANCED_FACE('',(#100),#170,.T.);
#177=ADVANCED_FACE('',(#101),#171,.T.);
#178=ADVANCED_FACE('',(#102),#172,.T.);
#179=ADVANCED_FACE('',(#103),#173,.T.);
#180=ADVANCED_FACE('',(#104),#174,.T.);
#181=ADVANCED_FACE('',(#105),#175,.T.);
#182=MANIFOLD_SOLID_BREP('Solid',#25);
#183=SHAPE_REPRESENTATION('RootProduct',(#169),#201);
#184=PRODUCT_DEFINITION_SHAPE('','',#188);
#185=PRODUCT_DEFINITION_SHAPE('','',#189);
#186=PRODUCT_DEFINITION_SHAPE('',$,#13);
#187=PRODUCT_DEFINITION_CONTEXT('part definition',#193,'');
#188=PRODUCT_DEFINITION('','',#190,#187);
#189=PRODUCT_DEFINITION('','',#191,#187);
#190=PRODUCT_DEFINITION_FORMATION('','',#195);
#191=PRODUCT_DEFINITION_FORMATION('','',#196);
#192=APPLICATION_PROTOCOL_DEFINITION('international standard',
'automotive_design',2003,#193);
#193=APPLICATION_CONTEXT(
'Core Data for Automotive Mechanical Design Process');
#194=PRODUCT_CONTEXT('part definition',#193,'');
#195=PRODUCT('Root','Root','',(#194));
#196=PRODUCT('141025 - Klemrubber 4-6 sleuf 8 BOIKON',
'141025 - Klemrubber 4-6 sleuf 8 BOIKON','',(#194));
#197=SHAPE_DEFINITION_REPRESENTATION(#184,#183);
#198=SHAPE_DEFINITION_REPRESENTATION(#185,#24);
#199=PRODUCT_RELATED_PRODUCT_CATEGORY('','',(#195,#196));
#200=UNCERTAINTY_MEASURE_WITH_UNIT(LENGTH_MEASURE(0.001),#203,
'DISTANCE_ACCURACY_VALUE',
'Maximum model space distance between geometric entities at asserted co
nnectivities');
#201=(
GEOMETRIC_REPRESENTATION_CONTEXT(3)
GLOBAL_UNCERTAINTY_ASSIGNED_CONTEXT((#200))
GLOBAL_UNIT_ASSIGNED_CONTEXT((#203,#205,#208))
REPRESENTATION_CONTEXT('Default Context','3D')
);
#202=(
GEOMETRIC_REPRESENTATION_CONTEXT(3)
GLOBAL_UNCERTAINTY_ASSIGNED_CONTEXT((#200))
GLOBAL_UNIT_ASSIGNED_CONTEXT((#203,#205,#208))
REPRESENTATION_CONTEXT('Default Context','3D')
);
#203=(
LENGTH_UNIT()
NAMED_UNIT(*)
SI_UNIT(.MILLI.,.METRE.)
);
#204=DIMENSIONAL_EXPONENTS(0.,0.,0.,0.,0.,0.,0.);
#205=(
CONVERSION_BASED_UNIT('degree',#207)
NAMED_UNIT(#204)
PLANE_ANGLE_UNIT()
);
#206=(
NAMED_UNIT(*)
PLANE_ANGLE_UNIT()
SI_UNIT($,.RADIAN.)
);
#207=PLANE_ANGLE_MEASURE_WITH_UNIT(PLANE_ANGLE_MEASURE(0.01745329252),#206);
#208=(
NAMED_UNIT(*)
SI_UNIT($,.STERADIAN.)
SOLID_ANGLE_UNIT()
);
ENDSEC;
END-ISO-10303-21;
