ISO-10303-21;
HEADER;
/* Generated by software containing ST-Developer
 * from STEP Tools, Inc. (www.steptools.com) 
 */
/* OPTION: using custom schema-name function */

FILE_DESCRIPTION(
/* description */ (''),
/* implementation_level */ '2;1');

FILE_NAME(
/* name */ '142020',
/* time_stamp */ '2014-10-06T12:04:57+02:00',
/* author */ (''),
/* organization */ (''),
/* preprocessor_version */ 'ST-DEVELOPER v14',
/* originating_system */ 'HiCAD 2013 1802.4 Build 509',
/* authorisation */ '');

FILE_SCHEMA (('AUTOMOTIVE_DESIGN { 1 0 10303 214 1 1 1 1 }'));
ENDSEC;

DATA;
#10=ITEM_DEFINED_TRANSFORMATION('','',#489,#490);
#11=(
REPRESENTATION_RELATIONSHIP('','',#566,#565)
REPRESENTATION_RELATIONSHIP_WITH_TRANSFORMATION(#10)
SHAPE_REPRESENTATION_RELATIONSHIP()
);
#12=CONTEXT_DEPENDENT_SHAPE_REPRESENTATION(#11,#569);
#13=NEXT_ASSEMBLY_USAGE_OCCURRENCE(
'142020Tussenplaat plaathouder 3mmBOIKON',
'142020Tussenplaat plaathouder 3mmBOIKON','',#571,#572,$);
#14=DRAUGHTING_PRE_DEFINED_CURVE_FONT('continuous');
#15=DRAUGHTING_PRE_DEFINED_CURVE_FONT('continuous');
#16=DRAUGHTING_PRE_DEFINED_CURVE_FONT('continuous');
#17=DRAUGHTING_PRE_DEFINED_CURVE_FONT('continuous');
#18=DRAUGHTING_PRE_DEFINED_CURVE_FONT('continuous');
#19=DRAUGHTING_PRE_DEFINED_CURVE_FONT('continuous');
#20=DRAUGHTING_PRE_DEFINED_CURVE_FONT('continuous');
#21=DRAUGHTING_PRE_DEFINED_CURVE_FONT('continuous');
#22=DRAUGHTING_PRE_DEFINED_CURVE_FONT('continuous');
#23=DRAUGHTING_PRE_DEFINED_CURVE_FONT('continuous');
#24=DRAUGHTING_PRE_DEFINED_CURVE_FONT('continuous');
#25=DRAUGHTING_PRE_DEFINED_CURVE_FONT('continuous');
#26=DRAUGHTING_PRE_DEFINED_CURVE_FONT('continuous');
#27=DRAUGHTING_PRE_DEFINED_CURVE_FONT('continuous');
#28=DRAUGHTING_PRE_DEFINED_CURVE_FONT('continuous');
#29=DRAUGHTING_PRE_DEFINED_CURVE_FONT('continuous');
#30=DRAUGHTING_PRE_DEFINED_CURVE_FONT('continuous');
#31=DRAUGHTING_PRE_DEFINED_CURVE_FONT('continuous');
#32=DRAUGHTING_PRE_DEFINED_CURVE_FONT('continuous');
#33=DRAUGHTING_PRE_DEFINED_CURVE_FONT('continuous');
#34=DRAUGHTING_PRE_DEFINED_CURVE_FONT('continuous');
#35=DRAUGHTING_PRE_DEFINED_CURVE_FONT('continuous');
#36=DRAUGHTING_PRE_DEFINED_CURVE_FONT('continuous');
#37=DRAUGHTING_PRE_DEFINED_CURVE_FONT('continuous');
#38=DRAUGHTING_PRE_DEFINED_CURVE_FONT('continuous');
#39=DRAUGHTING_PRE_DEFINED_CURVE_FONT('continuous');
#40=DRAUGHTING_PRE_DEFINED_CURVE_FONT('continuous');
#41=DRAUGHTING_PRE_DEFINED_CURVE_FONT('continuous');
#42=DRAUGHTING_PRE_DEFINED_CURVE_FONT('continuous');
#43=DRAUGHTING_PRE_DEFINED_CURVE_FONT('continuous');
#44=DRAUGHTING_PRE_DEFINED_CURVE_FONT('continuous');
#45=DRAUGHTING_PRE_DEFINED_CURVE_FONT('continuous');
#46=DRAUGHTING_PRE_DEFINED_CURVE_FONT('continuous');
#47=DRAUGHTING_PRE_DEFINED_CURVE_FONT('continuous');
#48=DRAUGHTING_PRE_DEFINED_CURVE_FONT('continuous');
#49=DRAUGHTING_PRE_DEFINED_CURVE_FONT('continuous');
#50=DRAUGHTING_PRE_DEFINED_CURVE_FONT('continuous');
#51=DRAUGHTING_PRE_DEFINED_CURVE_FONT('continuous');
#52=DRAUGHTING_PRE_DEFINED_CURVE_FONT('continuous');
#53=DRAUGHTING_PRE_DEFINED_CURVE_FONT('continuous');
#54=DRAUGHTING_PRE_DEFINED_CURVE_FONT('continuous');
#55=DRAUGHTING_PRE_DEFINED_CURVE_FONT('continuous');
#56=DRAUGHTING_PRE_DEFINED_CURVE_FONT('continuous');
#57=DRAUGHTING_PRE_DEFINED_CURVE_FONT('continuous');
#58=DRAUGHTING_PRE_DEFINED_CURVE_FONT('continuous');
#59=DRAUGHTING_PRE_DEFINED_CURVE_FONT('continuous');
#60=DRAUGHTING_PRE_DEFINED_CURVE_FONT('continuous');
#61=DRAUGHTING_PRE_DEFINED_CURVE_FONT('continuous');
#62=CURVE_STYLE(' ',#14,POSITIVE_LENGTH_MEASURE(0.352777777777778),#213);
#63=CURVE_STYLE(' ',#15,POSITIVE_LENGTH_MEASURE(0.352777777777778),#214);
#64=CURVE_STYLE(' ',#16,POSITIVE_LENGTH_MEASURE(0.352777777777778),#215);
#65=CURVE_STYLE(' ',#17,POSITIVE_LENGTH_MEASURE(0.352777777777778),#216);
#66=CURVE_STYLE(' ',#18,POSITIVE_LENGTH_MEASURE(0.352777777777778),#217);
#67=CURVE_STYLE(' ',#19,POSITIVE_LENGTH_MEASURE(0.352777777777778),#218);
#68=CURVE_STYLE(' ',#20,POSITIVE_LENGTH_MEASURE(0.352777777777778),#219);
#69=CURVE_STYLE(' ',#21,POSITIVE_LENGTH_MEASURE(0.352777777777778),#220);
#70=CURVE_STYLE(' ',#22,POSITIVE_LENGTH_MEASURE(0.352777777777778),#221);
#71=CURVE_STYLE(' ',#23,POSITIVE_LENGTH_MEASURE(0.352777777777778),#222);
#72=CURVE_STYLE(' ',#24,POSITIVE_LENGTH_MEASURE(0.352777777777778),#223);
#73=CURVE_STYLE(' ',#25,POSITIVE_LENGTH_MEASURE(0.352777777777778),#224);
#74=CURVE_STYLE(' ',#26,POSITIVE_LENGTH_MEASURE(0.352777777777778),#225);
#75=CURVE_STYLE(' ',#27,POSITIVE_LENGTH_MEASURE(0.352777777777778),#226);
#76=CURVE_STYLE(' ',#28,POSITIVE_LENGTH_MEASURE(0.352777777777778),#227);
#77=CURVE_STYLE(' ',#29,POSITIVE_LENGTH_MEASURE(0.352777777777778),#228);
#78=CURVE_STYLE(' ',#30,POSITIVE_LENGTH_MEASURE(0.352777777777778),#229);
#79=CURVE_STYLE(' ',#31,POSITIVE_LENGTH_MEASURE(0.352777777777778),#230);
#80=CURVE_STYLE(' ',#32,POSITIVE_LENGTH_MEASURE(0.352777777777778),#231);
#81=CURVE_STYLE(' ',#33,POSITIVE_LENGTH_MEASURE(0.352777777777778),#232);
#82=CURVE_STYLE(' ',#34,POSITIVE_LENGTH_MEASURE(0.352777777777778),#233);
#83=CURVE_STYLE(' ',#35,POSITIVE_LENGTH_MEASURE(0.352777777777778),#234);
#84=CURVE_STYLE(' ',#36,POSITIVE_LENGTH_MEASURE(0.352777777777778),#235);
#85=CURVE_STYLE(' ',#37,POSITIVE_LENGTH_MEASURE(0.352777777777778),#236);
#86=CURVE_STYLE(' ',#38,POSITIVE_LENGTH_MEASURE(0.352777777777778),#237);
#87=CURVE_STYLE(' ',#39,POSITIVE_LENGTH_MEASURE(0.352777777777778),#238);
#88=CURVE_STYLE(' ',#40,POSITIVE_LENGTH_MEASURE(0.352777777777778),#239);
#89=CURVE_STYLE(' ',#41,POSITIVE_LENGTH_MEASURE(0.352777777777778),#240);
#90=CURVE_STYLE(' ',#42,POSITIVE_LENGTH_MEASURE(0.352777777777778),#241);
#91=CURVE_STYLE(' ',#43,POSITIVE_LENGTH_MEASURE(0.352777777777778),#242);
#92=CURVE_STYLE(' ',#44,POSITIVE_LENGTH_MEASURE(0.352777777777778),#243);
#93=CURVE_STYLE(' ',#45,POSITIVE_LENGTH_MEASURE(0.352777777777778),#244);
#94=CURVE_STYLE(' ',#46,POSITIVE_LENGTH_MEASURE(0.352777777777778),#245);
#95=CURVE_STYLE(' ',#47,POSITIVE_LENGTH_MEASURE(0.352777777777778),#246);
#96=CURVE_STYLE(' ',#48,POSITIVE_LENGTH_MEASURE(0.352777777777778),#247);
#97=CURVE_STYLE(' ',#49,POSITIVE_LENGTH_MEASURE(0.352777777777778),#248);
#98=CURVE_STYLE(' ',#50,POSITIVE_LENGTH_MEASURE(0.352777777777778),#249);
#99=CURVE_STYLE(' ',#51,POSITIVE_LENGTH_MEASURE(0.352777777777778),#250);
#100=CURVE_STYLE(' ',#52,POSITIVE_LENGTH_MEASURE(0.352777777777778),#251);
#101=CURVE_STYLE(' ',#53,POSITIVE_LENGTH_MEASURE(0.352777777777778),#252);
#102=CURVE_STYLE(' ',#54,POSITIVE_LENGTH_MEASURE(0.352777777777778),#253);
#103=CURVE_STYLE(' ',#55,POSITIVE_LENGTH_MEASURE(0.352777777777778),#254);
#104=CURVE_STYLE(' ',#56,POSITIVE_LENGTH_MEASURE(0.352777777777778),#255);
#105=CURVE_STYLE(' ',#57,POSITIVE_LENGTH_MEASURE(0.352777777777778),#256);
#106=CURVE_STYLE(' ',#58,POSITIVE_LENGTH_MEASURE(0.352777777777778),#257);
#107=CURVE_STYLE(' ',#59,POSITIVE_LENGTH_MEASURE(0.352777777777778),#258);
#108=CURVE_STYLE(' ',#60,POSITIVE_LENGTH_MEASURE(0.352777777777778),#259);
#109=CURVE_STYLE(' ',#61,POSITIVE_LENGTH_MEASURE(0.352777777777778),#260);
#110=OVER_RIDING_STYLED_ITEM('Edge Colour',(#159),#375,#261);
#111=OVER_RIDING_STYLED_ITEM('Edge Colour',(#160),#376,#261);
#112=OVER_RIDING_STYLED_ITEM('Edge Colour',(#161),#377,#261);
#113=OVER_RIDING_STYLED_ITEM('Edge Colour',(#162),#378,#261);
#114=OVER_RIDING_STYLED_ITEM('Edge Colour',(#163),#379,#261);
#115=OVER_RIDING_STYLED_ITEM('Edge Colour',(#164),#380,#261);
#116=OVER_RIDING_STYLED_ITEM('Edge Colour',(#165),#381,#261);
#117=OVER_RIDING_STYLED_ITEM('Edge Colour',(#166),#382,#261);
#118=OVER_RIDING_STYLED_ITEM('Edge Colour',(#167),#383,#261);
#119=OVER_RIDING_STYLED_ITEM('Edge Colour',(#168),#384,#261);
#120=OVER_RIDING_STYLED_ITEM('Edge Colour',(#169),#375,#261);
#121=OVER_RIDING_STYLED_ITEM('Edge Colour',(#170),#385,#261);
#122=OVER_RIDING_STYLED_ITEM('Edge Colour',(#171),#386,#261);
#123=OVER_RIDING_STYLED_ITEM('Edge Colour',(#172),#383,#261);
#124=OVER_RIDING_STYLED_ITEM('Edge Colour',(#173),#387,#261);
#125=OVER_RIDING_STYLED_ITEM('Edge Colour',(#174),#388,#261);
#126=OVER_RIDING_STYLED_ITEM('Edge Colour',(#175),#389,#261);
#127=OVER_RIDING_STYLED_ITEM('Edge Colour',(#176),#390,#261);
#128=OVER_RIDING_STYLED_ITEM('Edge Colour',(#177),#391,#261);
#129=OVER_RIDING_STYLED_ITEM('Edge Colour',(#178),#392,#261);
#130=OVER_RIDING_STYLED_ITEM('Edge Colour',(#179),#386,#261);
#131=OVER_RIDING_STYLED_ITEM('Edge Colour',(#180),#393,#261);
#132=OVER_RIDING_STYLED_ITEM('Edge Colour',(#181),#376,#261);
#133=OVER_RIDING_STYLED_ITEM('Edge Colour',(#182),#384,#261);
#134=OVER_RIDING_STYLED_ITEM('Edge Colour',(#183),#388,#261);
#135=OVER_RIDING_STYLED_ITEM('Edge Colour',(#184),#394,#261);
#136=OVER_RIDING_STYLED_ITEM('Edge Colour',(#185),#377,#261);
#137=OVER_RIDING_STYLED_ITEM('Edge Colour',(#186),#393,#261);
#138=OVER_RIDING_STYLED_ITEM('Edge Colour',(#187),#387,#261);
#139=OVER_RIDING_STYLED_ITEM('Edge Colour',(#188),#385,#261);
#140=OVER_RIDING_STYLED_ITEM('Edge Colour',(#189),#378,#261);
#141=OVER_RIDING_STYLED_ITEM('Edge Colour',(#190),#394,#261);
#142=OVER_RIDING_STYLED_ITEM('Edge Colour',(#191),#395,#261);
#143=OVER_RIDING_STYLED_ITEM('Edge Colour',(#192),#379,#261);
#144=OVER_RIDING_STYLED_ITEM('Edge Colour',(#193),#396,#261);
#145=OVER_RIDING_STYLED_ITEM('Edge Colour',(#194),#389,#261);
#146=OVER_RIDING_STYLED_ITEM('Edge Colour',(#195),#380,#261);
#147=OVER_RIDING_STYLED_ITEM('Edge Colour',(#196),#397,#261);
#148=OVER_RIDING_STYLED_ITEM('Edge Colour',(#197),#392,#261);
#149=OVER_RIDING_STYLED_ITEM('Edge Colour',(#198),#395,#261);
#150=OVER_RIDING_STYLED_ITEM('Edge Colour',(#199),#397,#261);
#151=OVER_RIDING_STYLED_ITEM('Edge Colour',(#200),#391,#261);
#152=OVER_RIDING_STYLED_ITEM('Edge Colour',(#201),#398,#261);
#153=OVER_RIDING_STYLED_ITEM('Edge Colour',(#202),#381,#261);
#154=OVER_RIDING_STYLED_ITEM('Edge Colour',(#203),#382,#261);
#155=OVER_RIDING_STYLED_ITEM('Edge Colour',(#204),#396,#261);
#156=OVER_RIDING_STYLED_ITEM('Edge Colour',(#205),#390,#261);
#157=OVER_RIDING_STYLED_ITEM('Edge Colour',(#206),#398,#261);
#158=PRESENTATION_STYLE_ASSIGNMENT((#207));
#159=PRESENTATION_STYLE_ASSIGNMENT((#62));
#160=PRESENTATION_STYLE_ASSIGNMENT((#63));
#161=PRESENTATION_STYLE_ASSIGNMENT((#64));
#162=PRESENTATION_STYLE_ASSIGNMENT((#65));
#163=PRESENTATION_STYLE_ASSIGNMENT((#66));
#164=PRESENTATION_STYLE_ASSIGNMENT((#67));
#165=PRESENTATION_STYLE_ASSIGNMENT((#68));
#166=PRESENTATION_STYLE_ASSIGNMENT((#69));
#167=PRESENTATION_STYLE_ASSIGNMENT((#70));
#168=PRESENTATION_STYLE_ASSIGNMENT((#71));
#169=PRESENTATION_STYLE_ASSIGNMENT((#72));
#170=PRESENTATION_STYLE_ASSIGNMENT((#73));
#171=PRESENTATION_STYLE_ASSIGNMENT((#74));
#172=PRESENTATION_STYLE_ASSIGNMENT((#75));
#173=PRESENTATION_STYLE_ASSIGNMENT((#76));
#174=PRESENTATION_STYLE_ASSIGNMENT((#77));
#175=PRESENTATION_STYLE_ASSIGNMENT((#78));
#176=PRESENTATION_STYLE_ASSIGNMENT((#79));
#177=PRESENTATION_STYLE_ASSIGNMENT((#80));
#178=PRESENTATION_STYLE_ASSIGNMENT((#81));
#179=PRESENTATION_STYLE_ASSIGNMENT((#82));
#180=PRESENTATION_STYLE_ASSIGNMENT((#83));
#181=PRESENTATION_STYLE_ASSIGNMENT((#84));
#182=PRESENTATION_STYLE_ASSIGNMENT((#85));
#183=PRESENTATION_STYLE_ASSIGNMENT((#86));
#184=PRESENTATION_STYLE_ASSIGNMENT((#87));
#185=PRESENTATION_STYLE_ASSIGNMENT((#88));
#186=PRESENTATION_STYLE_ASSIGNMENT((#89));
#187=PRESENTATION_STYLE_ASSIGNMENT((#90));
#188=PRESENTATION_STYLE_ASSIGNMENT((#91));
#189=PRESENTATION_STYLE_ASSIGNMENT((#92));
#190=PRESENTATION_STYLE_ASSIGNMENT((#93));
#191=PRESENTATION_STYLE_ASSIGNMENT((#94));
#192=PRESENTATION_STYLE_ASSIGNMENT((#95));
#193=PRESENTATION_STYLE_ASSIGNMENT((#96));
#194=PRESENTATION_STYLE_ASSIGNMENT((#97));
#195=PRESENTATION_STYLE_ASSIGNMENT((#98));
#196=PRESENTATION_STYLE_ASSIGNMENT((#99));
#197=PRESENTATION_STYLE_ASSIGNMENT((#100));
#198=PRESENTATION_STYLE_ASSIGNMENT((#101));
#199=PRESENTATION_STYLE_ASSIGNMENT((#102));
#200=PRESENTATION_STYLE_ASSIGNMENT((#103));
#201=PRESENTATION_STYLE_ASSIGNMENT((#104));
#202=PRESENTATION_STYLE_ASSIGNMENT((#105));
#203=PRESENTATION_STYLE_ASSIGNMENT((#106));
#204=PRESENTATION_STYLE_ASSIGNMENT((#107));
#205=PRESENTATION_STYLE_ASSIGNMENT((#108));
#206=PRESENTATION_STYLE_ASSIGNMENT((#109));
#207=SURFACE_STYLE_USAGE(.BOTH.,#208);
#208=SURFACE_SIDE_STYLE('',(#209));
#209=SURFACE_STYLE_FILL_AREA(#210);
#210=FILL_AREA_STYLE('',(#211));
#211=FILL_AREA_STYLE_COLOUR('',#212);
#212=COLOUR_RGB('',0.32548999786377,0.305882006883621,0.352941006422043);
#213=COLOUR_RGB('',0.,0.,0.);
#214=COLOUR_RGB('',0.,0.,0.);
#215=COLOUR_RGB('',0.,0.,0.);
#216=COLOUR_RGB('',0.,0.,0.);
#217=COLOUR_RGB('',0.,0.,0.);
#218=COLOUR_RGB('',0.,0.,0.);
#219=COLOUR_RGB('',0.,0.,0.);
#220=COLOUR_RGB('',0.,0.,0.);
#221=COLOUR_RGB('',0.,0.,0.);
#222=COLOUR_RGB('',0.,0.,0.);
#223=COLOUR_RGB('',0.,0.,0.);
#224=COLOUR_RGB('',0.,0.,0.);
#225=COLOUR_RGB('',0.,0.,0.);
#226=COLOUR_RGB('',0.,0.,0.);
#227=COLOUR_RGB('',0.,0.,0.);
#228=COLOUR_RGB('',0.,0.,0.);
#229=COLOUR_RGB('',0.,0.,0.);
#230=COLOUR_RGB('',0.,0.,0.);
#231=COLOUR_RGB('',0.,0.,0.);
#232=COLOUR_RGB('',0.,0.,0.);
#233=COLOUR_RGB('',0.,0.,0.);
#234=COLOUR_RGB('',0.,0.,0.);
#235=COLOUR_RGB('',0.,0.,0.);
#236=COLOUR_RGB('',0.,0.,0.);
#237=COLOUR_RGB('',0.,0.,0.);
#238=COLOUR_RGB('',0.,0.,0.);
#239=COLOUR_RGB('',0.,0.,0.);
#240=COLOUR_RGB('',0.,0.,0.);
#241=COLOUR_RGB('',0.,0.,0.);
#242=COLOUR_RGB('',0.,0.,0.);
#243=COLOUR_RGB('',0.,0.,0.);
#244=COLOUR_RGB('',0.,0.,0.);
#245=COLOUR_RGB('',0.,0.,0.);
#246=COLOUR_RGB('',0.,0.,0.);
#247=COLOUR_RGB('',0.,0.,0.);
#248=COLOUR_RGB('',0.,0.,0.);
#249=COLOUR_RGB('',0.,0.,0.);
#250=COLOUR_RGB('',0.,0.,0.);
#251=COLOUR_RGB('',0.,0.,0.);
#252=COLOUR_RGB('',0.,0.,0.);
#253=COLOUR_RGB('',0.,0.,0.);
#254=COLOUR_RGB('',0.,0.,0.);
#255=COLOUR_RGB('',0.,0.,0.);
#256=COLOUR_RGB('',0.,0.,0.);
#257=COLOUR_RGB('',0.,0.,0.);
#258=COLOUR_RGB('',0.,0.,0.);
#259=COLOUR_RGB('',0.,0.,0.);
#260=COLOUR_RGB('',0.,0.,0.);
#261=STYLED_ITEM('Solid Colour',(#158),#509);
#262=MECHANICAL_DESIGN_GEOMETRIC_PRESENTATION_REPRESENTATION(
'Container for Styled_item',(#261,#110,#111,#112,#113,#114,#115,#116,#117,
#118,#119,#120,#121,#122,#123,#124,#125,#126,#127,#128,#129,#130,#131,#132,
#133,#134,#135,#136,#137,#138,#139,#140,#141,#142,#143,#144,#145,#146,#147,
#148,#149,#150,#151,#152,#153,#154,#155,#156,#157),#584);
#263=PRESENTATION_LAYER_ASSIGNMENT('APPLE','1',(#510,#509));
#264=CLOSED_SHELL('',(#499,#500,#501,#502,#503,#504,#505,#506,#507,#508));
#265=CYLINDRICAL_SURFACE('',#486,3.24999999999999);
#266=CYLINDRICAL_SURFACE('',#488,3.24999999999999);
#267=CIRCLE('',#476,3.24999999999999);
#268=CIRCLE('',#477,3.24999999999999);
#269=CIRCLE('',#480,3.24999999999999);
#270=CIRCLE('',#481,3.24999999999999);
#271=ORIENTED_EDGE('',*,*,#375,.F.);
#272=ORIENTED_EDGE('',*,*,#376,.F.);
#273=ORIENTED_EDGE('',*,*,#377,.F.);
#274=ORIENTED_EDGE('',*,*,#378,.F.);
#275=ORIENTED_EDGE('',*,*,#379,.F.);
#276=ORIENTED_EDGE('',*,*,#380,.F.);
#277=ORIENTED_EDGE('',*,*,#381,.F.);
#278=ORIENTED_EDGE('',*,*,#382,.F.);
#279=ORIENTED_EDGE('',*,*,#383,.F.);
#280=ORIENTED_EDGE('',*,*,#384,.F.);
#281=ORIENTED_EDGE('',*,*,#375,.T.);
#282=ORIENTED_EDGE('',*,*,#385,.T.);
#283=ORIENTED_EDGE('',*,*,#386,.T.);
#284=ORIENTED_EDGE('',*,*,#383,.T.);
#285=ORIENTED_EDGE('',*,*,#387,.T.);
#286=ORIENTED_EDGE('',*,*,#388,.T.);
#287=ORIENTED_EDGE('',*,*,#389,.F.);
#288=ORIENTED_EDGE('',*,*,#390,.F.);
#289=ORIENTED_EDGE('',*,*,#391,.F.);
#290=ORIENTED_EDGE('',*,*,#392,.F.);
#291=ORIENTED_EDGE('',*,*,#386,.F.);
#292=ORIENTED_EDGE('',*,*,#393,.F.);
#293=ORIENTED_EDGE('',*,*,#376,.T.);
#294=ORIENTED_EDGE('',*,*,#384,.T.);
#295=ORIENTED_EDGE('',*,*,#388,.F.);
#296=ORIENTED_EDGE('',*,*,#394,.F.);
#297=ORIENTED_EDGE('',*,*,#377,.T.);
#298=ORIENTED_EDGE('',*,*,#393,.T.);
#299=ORIENTED_EDGE('',*,*,#387,.F.);
#300=ORIENTED_EDGE('',*,*,#385,.F.);
#301=ORIENTED_EDGE('',*,*,#378,.T.);
#302=ORIENTED_EDGE('',*,*,#394,.T.);
#303=ORIENTED_EDGE('',*,*,#395,.T.);
#304=ORIENTED_EDGE('',*,*,#379,.T.);
#305=ORIENTED_EDGE('',*,*,#396,.F.);
#306=ORIENTED_EDGE('',*,*,#389,.T.);
#307=ORIENTED_EDGE('',*,*,#380,.F.);
#308=ORIENTED_EDGE('',*,*,#397,.F.);
#309=ORIENTED_EDGE('',*,*,#392,.F.);
#310=ORIENTED_EDGE('',*,*,#395,.T.);
#311=ORIENTED_EDGE('',*,*,#397,.F.);
#312=ORIENTED_EDGE('',*,*,#391,.T.);
#313=ORIENTED_EDGE('',*,*,#398,.T.);
#314=ORIENTED_EDGE('',*,*,#381,.T.);
#315=ORIENTED_EDGE('',*,*,#382,.F.);
#316=ORIENTED_EDGE('',*,*,#396,.F.);
#317=ORIENTED_EDGE('',*,*,#390,.F.);
#318=ORIENTED_EDGE('',*,*,#398,.T.);
#319=VECTOR('',#425,1.);
#320=VECTOR('',#426,1.);
#321=VECTOR('',#427,1.);
#322=VECTOR('',#428,1.);
#323=VECTOR('',#429,1.);
#324=VECTOR('',#432,1.);
#325=VECTOR('',#437,1.);
#326=VECTOR('',#438,1.);
#327=VECTOR('',#439,1.);
#328=VECTOR('',#442,1.);
#329=VECTOR('',#443,1.);
#330=VECTOR('',#444,1.);
#331=VECTOR('',#445,1.);
#332=VECTOR('',#448,1.);
#333=VECTOR('',#453,1.);
#334=VECTOR('',#456,1.);
#335=VECTOR('',#461,1.);
#336=VECTOR('',#462,1.);
#337=VECTOR('',#465,1.);
#338=VECTOR('',#468,1.);
#339=LINE('',#516,#319);
#340=LINE('',#518,#320);
#341=LINE('',#520,#321);
#342=LINE('',#521,#322);
#343=LINE('',#524,#323);
#344=LINE('',#528,#324);
#345=LINE('',#533,#325);
#346=LINE('',#534,#326);
#347=LINE('',#535,#327);
#348=LINE('',#538,#328);
#349=LINE('',#540,#329);
#350=LINE('',#541,#330);
#351=LINE('',#544,#331);
#352=LINE('',#548,#332);
#353=LINE('',#551,#333);
#354=LINE('',#553,#334);
#355=LINE('',#556,#335);
#356=LINE('',#557,#336);
#357=LINE('',#559,#337);
#358=LINE('',#561,#338);
#359=VERTEX_POINT('',#514);
#360=VERTEX_POINT('',#515);
#361=VERTEX_POINT('',#517);
#362=VERTEX_POINT('',#519);
#363=VERTEX_POINT('',#522);
#364=VERTEX_POINT('',#523);
#365=VERTEX_POINT('',#525);
#366=VERTEX_POINT('',#527);
#367=VERTEX_POINT('',#531);
#368=VERTEX_POINT('',#532);
#369=VERTEX_POINT('',#537);
#370=VERTEX_POINT('',#539);
#371=VERTEX_POINT('',#542);
#372=VERTEX_POINT('',#543);
#373=VERTEX_POINT('',#545);
#374=VERTEX_POINT('',#547);
#375=EDGE_CURVE('',#359,#360,#339,.T.);
#376=EDGE_CURVE('',#361,#359,#340,.T.);
#377=EDGE_CURVE('',#362,#361,#341,.T.);
#378=EDGE_CURVE('',#360,#362,#342,.T.);
#379=EDGE_CURVE('',#363,#364,#343,.T.);
#380=EDGE_CURVE('',#365,#363,#267,.T.);
#381=EDGE_CURVE('',#366,#365,#344,.T.);
#382=EDGE_CURVE('',#364,#366,#268,.T.);
#383=EDGE_CURVE('',#367,#368,#345,.T.);
#384=EDGE_CURVE('',#359,#367,#346,.T.);
#385=EDGE_CURVE('',#360,#368,#347,.T.);
#386=EDGE_CURVE('',#369,#367,#348,.T.);
#387=EDGE_CURVE('',#368,#370,#349,.T.);
#388=EDGE_CURVE('',#370,#369,#350,.T.);
#389=EDGE_CURVE('',#371,#372,#351,.T.);
#390=EDGE_CURVE('',#373,#371,#269,.T.);
#391=EDGE_CURVE('',#374,#373,#352,.T.);
#392=EDGE_CURVE('',#372,#374,#270,.T.);
#393=EDGE_CURVE('',#361,#369,#353,.T.);
#394=EDGE_CURVE('',#362,#370,#354,.T.);
#395=EDGE_CURVE('',#372,#363,#355,.T.);
#396=EDGE_CURVE('',#371,#364,#356,.T.);
#397=EDGE_CURVE('',#374,#365,#357,.T.);
#398=EDGE_CURVE('',#373,#366,#358,.T.);
#399=EDGE_LOOP('',(#271,#272,#273,#274));
#400=EDGE_LOOP('',(#275,#276,#277,#278));
#401=EDGE_LOOP('',(#279,#280,#281,#282));
#402=EDGE_LOOP('',(#283,#284,#285,#286));
#403=EDGE_LOOP('',(#287,#288,#289,#290));
#404=EDGE_LOOP('',(#291,#292,#293,#294));
#405=EDGE_LOOP('',(#295,#296,#297,#298));
#406=EDGE_LOOP('',(#299,#300,#301,#302));
#407=EDGE_LOOP('',(#303,#304,#305,#306));
#408=EDGE_LOOP('',(#307,#308,#309,#310));
#409=EDGE_LOOP('',(#311,#312,#313,#314));
#410=EDGE_LOOP('',(#315,#316,#317,#318));
#411=FACE_BOUND('',#399,.T.);
#412=FACE_BOUND('',#400,.T.);
#413=FACE_BOUND('',#401,.T.);
#414=FACE_BOUND('',#402,.T.);
#415=FACE_BOUND('',#403,.T.);
#416=FACE_BOUND('',#404,.T.);
#417=FACE_BOUND('',#405,.T.);
#418=FACE_BOUND('',#406,.T.);
#419=FACE_BOUND('',#407,.T.);
#420=FACE_BOUND('',#408,.F.);
#421=FACE_BOUND('',#409,.T.);
#422=FACE_BOUND('',#410,.F.);
#423=DIRECTION('',(6.12323399573677E-017,6.12323399573677E-017,-1.));
#424=DIRECTION('',(0.,1.,6.12323399573677E-017));
#425=DIRECTION('',(25.,0.,0.));
#426=DIRECTION('',(0.,-18.5,0.));
#427=DIRECTION('',(-25.,0.,0.));
#428=DIRECTION('',(0.,18.5,0.));
#429=DIRECTION('',(8.99999999999997,0.,0.));
#430=DIRECTION('',(6.12323399573677E-017,0.,-1.));
#431=DIRECTION('',(0.,-3.24999999999999,0.));
#432=DIRECTION('',(-8.99999999999997,0.,0.));
#433=DIRECTION('',(6.12323399573677E-017,0.,-1.));
#434=DIRECTION('',(0.,-3.24999999999999,0.));
#435=DIRECTION('',(0.,-1.,-6.12323399573677E-017));
#436=DIRECTION('',(-1.,0.,0.));
#437=DIRECTION('',(25.,0.,0.));
#438=DIRECTION('',(0.,0.,3.));
#439=DIRECTION('',(0.,0.,3.));
#440=DIRECTION('',(-6.12323399573677E-017,-6.12323399573677E-017,1.));
#441=DIRECTION('',(0.,-1.,-6.12323399573677E-017));
#442=DIRECTION('',(0.,-18.5,0.));
#443=DIRECTION('',(0.,18.5,0.));
#444=DIRECTION('',(-25.,0.,0.));
#445=DIRECTION('',(-8.99999999999997,0.,0.));
#446=DIRECTION('',(-6.12323399573677E-017,0.,1.));
#447=DIRECTION('',(0.,3.24999999999999,0.));
#448=DIRECTION('',(8.99999999999997,0.,0.));
#449=DIRECTION('',(-6.12323399573677E-017,0.,1.));
#450=DIRECTION('',(0.,3.24999999999999,0.));
#451=DIRECTION('',(-1.,3.74939945665464E-033,-6.12323399573677E-017));
#452=DIRECTION('',(3.74939945665464E-033,1.,0.));
#453=DIRECTION('',(0.,0.,3.));
#454=DIRECTION('',(0.,1.,6.12323399573677E-017));
#455=DIRECTION('',(1.,0.,0.));
#456=DIRECTION('',(0.,0.,3.));
#457=DIRECTION('',(1.,-3.74939945665464E-033,6.12323399573677E-017));
#458=DIRECTION('',(-3.74939945665464E-033,-1.,0.));
#459=DIRECTION('',(-1.48029736616688E-016,-1.,-6.12323399573677E-017));
#460=DIRECTION('',(-1.,1.48029736616688E-016,0.));
#461=DIRECTION('',(0.,0.,-3.));
#462=DIRECTION('',(0.,0.,-3.));
#463=DIRECTION('',(0.,0.,-1.));
#464=DIRECTION('',(0.,-1.,0.));
#465=DIRECTION('',(0.,0.,-3.));
#466=DIRECTION('',(3.45402718772272E-016,1.,6.12323399573677E-017));
#467=DIRECTION('',(1.,-3.45402718772272E-016,0.));
#468=DIRECTION('',(0.,0.,-3.));
#469=DIRECTION('',(0.,0.,-1.));
#470=DIRECTION('',(0.,-1.,0.));
#471=DIRECTION('',(0.,0.,1.));
#472=DIRECTION('',(1.,0.,0.));
#473=DIRECTION('',(0.,0.,1.));
#474=DIRECTION('',(1.,0.,0.));
#475=AXIS2_PLACEMENT_3D('',#513,#423,#424);
#476=AXIS2_PLACEMENT_3D('',#526,#430,#431);
#477=AXIS2_PLACEMENT_3D('',#529,#433,#434);
#478=AXIS2_PLACEMENT_3D('',#530,#435,#436);
#479=AXIS2_PLACEMENT_3D('',#536,#440,#441);
#480=AXIS2_PLACEMENT_3D('',#546,#446,#447);
#481=AXIS2_PLACEMENT_3D('',#549,#449,#450);
#482=AXIS2_PLACEMENT_3D('',#550,#451,#452);
#483=AXIS2_PLACEMENT_3D('',#552,#454,#455);
#484=AXIS2_PLACEMENT_3D('',#554,#457,#458);
#485=AXIS2_PLACEMENT_3D('',#555,#459,#460);
#486=AXIS2_PLACEMENT_3D('',#558,#463,#464);
#487=AXIS2_PLACEMENT_3D('',#560,#466,#467);
#488=AXIS2_PLACEMENT_3D('',#562,#469,#470);
#489=AXIS2_PLACEMENT_3D('',#563,#471,#472);
#490=AXIS2_PLACEMENT_3D('',#564,#473,#474);
#491=PLANE('',#475);
#492=PLANE('',#478);
#493=PLANE('',#479);
#494=PLANE('',#482);
#495=PLANE('',#483);
#496=PLANE('',#484);
#497=PLANE('',#485);
#498=PLANE('',#487);
#499=ADVANCED_FACE('',(#411,#412),#491,.T.);
#500=ADVANCED_FACE('',(#413),#492,.T.);
#501=ADVANCED_FACE('',(#414,#415),#493,.T.);
#502=ADVANCED_FACE('',(#416),#494,.T.);
#503=ADVANCED_FACE('',(#417),#495,.T.);
#504=ADVANCED_FACE('',(#418),#496,.T.);
#505=ADVANCED_FACE('',(#419),#497,.T.);
#506=ADVANCED_FACE('',(#420),#265,.F.);
#507=ADVANCED_FACE('',(#421),#498,.T.);
#508=ADVANCED_FACE('',(#422),#266,.F.);
#509=MANIFOLD_SOLID_BREP('Solid',#264);
#510=GEOMETRIC_SET('Vertexshell',(#511,#512));
#511=CARTESIAN_POINT('',(11.7499999999999,9.25000000000003,0.));
#512=CARTESIAN_POINT('',(11.75,9.25000000000003,3.));
#513=CARTESIAN_POINT('',(0.,0.,0.));
#514=CARTESIAN_POINT('',(0.,0.,0.));
#515=CARTESIAN_POINT('',(25.,0.,0.));
#516=CARTESIAN_POINT('',(0.,0.,0.));
#517=CARTESIAN_POINT('',(0.,18.5,0.));
#518=CARTESIAN_POINT('',(0.,18.5,0.));
#519=CARTESIAN_POINT('',(25.,18.5,0.));
#520=CARTESIAN_POINT('',(25.,18.5,0.));
#521=CARTESIAN_POINT('',(25.,0.,0.));
#522=CARTESIAN_POINT('',(7.24999999999997,12.5,0.));
#523=CARTESIAN_POINT('',(16.2499999999999,12.5,0.));
#524=CARTESIAN_POINT('',(7.24999999999997,12.5,0.));
#525=CARTESIAN_POINT('',(7.24999999999997,6.00000000000004,0.));
#526=CARTESIAN_POINT('',(7.24999999999997,9.25000000000003,0.));
#527=CARTESIAN_POINT('',(16.2499999999999,6.00000000000004,0.));
#528=CARTESIAN_POINT('',(16.2499999999999,6.00000000000004,0.));
#529=CARTESIAN_POINT('',(16.2499999999999,9.25000000000003,0.));
#530=CARTESIAN_POINT('',(0.,0.,0.));
#531=CARTESIAN_POINT('',(0.,0.,3.));
#532=CARTESIAN_POINT('',(25.,0.,3.));
#533=CARTESIAN_POINT('',(0.,0.,3.));
#534=CARTESIAN_POINT('',(0.,0.,0.));
#535=CARTESIAN_POINT('',(25.,0.,0.));
#536=CARTESIAN_POINT('',(0.,0.,3.));
#537=CARTESIAN_POINT('',(0.,18.5,3.));
#538=CARTESIAN_POINT('',(0.,18.5,3.));
#539=CARTESIAN_POINT('',(25.,18.5,3.));
#540=CARTESIAN_POINT('',(25.,0.,3.));
#541=CARTESIAN_POINT('',(25.,18.5,3.));
#542=CARTESIAN_POINT('',(16.2499999999999,12.5,3.));
#543=CARTESIAN_POINT('',(7.24999999999997,12.5,3.));
#544=CARTESIAN_POINT('',(16.2499999999999,12.5,3.));
#545=CARTESIAN_POINT('',(16.2499999999999,6.00000000000004,3.));
#546=CARTESIAN_POINT('',(16.2499999999999,9.25000000000003,3.));
#547=CARTESIAN_POINT('',(7.24999999999997,6.00000000000004,3.));
#548=CARTESIAN_POINT('',(7.24999999999997,6.00000000000004,3.));
#549=CARTESIAN_POINT('',(7.24999999999997,9.25000000000003,3.));
#550=CARTESIAN_POINT('',(0.,0.,3.));
#551=CARTESIAN_POINT('',(0.,18.5,0.));
#552=CARTESIAN_POINT('',(0.,18.5,3.));
#553=CARTESIAN_POINT('',(25.,18.5,0.));
#554=CARTESIAN_POINT('',(25.,0.,0.));
#555=CARTESIAN_POINT('',(7.24999999999997,12.5,0.));
#556=CARTESIAN_POINT('',(7.24999999999997,12.5,3.));
#557=CARTESIAN_POINT('',(16.2499999999999,12.5,3.));
#558=CARTESIAN_POINT('',(7.24999999999997,9.25000000000003,0.));
#559=CARTESIAN_POINT('',(7.24999999999997,6.00000000000004,3.));
#560=CARTESIAN_POINT('',(7.24999999999997,6.00000000000004,0.));
#561=CARTESIAN_POINT('',(16.2499999999999,6.00000000000004,3.));
#562=CARTESIAN_POINT('',(16.2499999999999,9.25000000000003,0.));
#563=CARTESIAN_POINT('',(0.,0.,0.));
#564=CARTESIAN_POINT('',(127.242108894674,64.813089822983,23.2512105006114));
#565=SHAPE_REPRESENTATION('RootProduct',(#490),#584);
#566=SHAPE_REPRESENTATION('HiCADMultiBody',(#510,#509,#489),#585);
#567=PRODUCT_DEFINITION_SHAPE('','',#571);
#568=PRODUCT_DEFINITION_SHAPE('','',#572);
#569=PRODUCT_DEFINITION_SHAPE('',$,#13);
#570=PRODUCT_DEFINITION_CONTEXT('part definition',#576,'');
#571=PRODUCT_DEFINITION('','',#573,#570);
#572=PRODUCT_DEFINITION('','',#574,#570);
#573=PRODUCT_DEFINITION_FORMATION('','',#578);
#574=PRODUCT_DEFINITION_FORMATION('','',#579);
#575=APPLICATION_PROTOCOL_DEFINITION('international standard',
'automotive_design',2003,#576);
#576=APPLICATION_CONTEXT(
'Core Data for Automotive Mechanical Design Process');
#577=PRODUCT_CONTEXT('part definition',#576,'');
#578=PRODUCT('Root','Root','',(#577));
#579=PRODUCT('142020Tussenplaat plaathouder 3mmBOIKON',
'142020Tussenplaat plaathouder 3mmBOIKON','',(#577));
#580=SHAPE_DEFINITION_REPRESENTATION(#567,#565);
#581=SHAPE_DEFINITION_REPRESENTATION(#568,#566);
#582=PRODUCT_RELATED_PRODUCT_CATEGORY('','',(#578,#579));
#583=UNCERTAINTY_MEASURE_WITH_UNIT(LENGTH_MEASURE(0.001),#586,
'DISTANCE_ACCURACY_VALUE',
'Maximum model space distance between geometric entities at asserted co
nnectivities');
#584=(
GEOMETRIC_REPRESENTATION_CONTEXT(3)
GLOBAL_UNCERTAINTY_ASSIGNED_CONTEXT((#583))
GLOBAL_UNIT_ASSIGNED_CONTEXT((#586,#588,#591))
REPRESENTATION_CONTEXT('Default Context','3D')
);
#585=(
GEOMETRIC_REPRESENTATION_CONTEXT(3)
GLOBAL_UNCERTAINTY_ASSIGNED_CONTEXT((#583))
GLOBAL_UNIT_ASSIGNED_CONTEXT((#586,#588,#591))
REPRESENTATION_CONTEXT('Default Context','3D')
);
#586=(
LENGTH_UNIT()
NAMED_UNIT(*)
SI_UNIT(.MILLI.,.METRE.)
);
#587=DIMENSIONAL_EXPONENTS(0.,0.,0.,0.,0.,0.,0.);
#588=(
CONVERSION_BASED_UNIT('degree',#590)
NAMED_UNIT(#587)
PLANE_ANGLE_UNIT()
);
#589=(
NAMED_UNIT(*)
PLANE_ANGLE_UNIT()
SI_UNIT($,.RADIAN.)
);
#590=PLANE_ANGLE_MEASURE_WITH_UNIT(PLANE_ANGLE_MEASURE(0.01745329252),#589);
#591=(
NAMED_UNIT(*)
SI_UNIT($,.STERADIAN.)
SOLID_ANGLE_UNIT()
);
ENDSEC;
END-ISO-10303-21;
