ISO-10303-21;
HEADER;
/* Generated by software containing ST-Developer
 * from STEP Tools, Inc. (www.steptools.com) 
 */
/* OPTION: using custom schema-name function */

FILE_DESCRIPTION(
/* description */ (''),
/* implementation_level */ '2;1');

FILE_NAME(
/* name */ '144110',
/* time_stamp */ '2014-10-06T15:59:28+02:00',
/* author */ (''),
/* organization */ (''),
/* preprocessor_version */ 'ST-DEVELOPER v14',
/* originating_system */ 'HiCAD 2013 1802.4 Build 509',
/* authorisation */ '');

FILE_SCHEMA (('AUTOMOTIVE_DESIGN { 1 0 10303 214 1 1 1 1 }'));
ENDSEC;

DATA;
#10=ITEM_DEFINED_TRANSFORMATION('','',#335,#336);
#11=(
REPRESENTATION_RELATIONSHIP('','',#398,#397)
REPRESENTATION_RELATIONSHIP_WITH_TRANSFORMATION(#10)
SHAPE_REPRESENTATION_RELATIONSHIP()
);
#12=CONTEXT_DEPENDENT_SHAPE_REPRESENTATION(#11,#401);
#13=NEXT_ASSEMBLY_USAGE_OCCURRENCE(
'144110Looprol diam. 39, sleuf 8BOIKON',
'144110Looprol diam. 39, sleuf 8BOIKON','',#403,#404,$);
#14=DRAUGHTING_PRE_DEFINED_CURVE_FONT('continuous');
#15=DRAUGHTING_PRE_DEFINED_CURVE_FONT('continuous');
#16=DRAUGHTING_PRE_DEFINED_CURVE_FONT('continuous');
#17=DRAUGHTING_PRE_DEFINED_CURVE_FONT('continuous');
#18=DRAUGHTING_PRE_DEFINED_CURVE_FONT('continuous');
#19=DRAUGHTING_PRE_DEFINED_CURVE_FONT('continuous');
#20=DRAUGHTING_PRE_DEFINED_CURVE_FONT('continuous');
#21=DRAUGHTING_PRE_DEFINED_CURVE_FONT('continuous');
#22=DRAUGHTING_PRE_DEFINED_CURVE_FONT('continuous');
#23=DRAUGHTING_PRE_DEFINED_CURVE_FONT('continuous');
#24=DRAUGHTING_PRE_DEFINED_CURVE_FONT('continuous');
#25=DRAUGHTING_PRE_DEFINED_CURVE_FONT('continuous');
#26=DRAUGHTING_PRE_DEFINED_CURVE_FONT('continuous');
#27=DRAUGHTING_PRE_DEFINED_CURVE_FONT('continuous');
#28=DRAUGHTING_PRE_DEFINED_CURVE_FONT('continuous');
#29=DRAUGHTING_PRE_DEFINED_CURVE_FONT('continuous');
#30=DRAUGHTING_PRE_DEFINED_CURVE_FONT('continuous');
#31=DRAUGHTING_PRE_DEFINED_CURVE_FONT('continuous');
#32=DRAUGHTING_PRE_DEFINED_CURVE_FONT('continuous');
#33=DRAUGHTING_PRE_DEFINED_CURVE_FONT('continuous');
#34=DRAUGHTING_PRE_DEFINED_CURVE_FONT('continuous');
#35=DRAUGHTING_PRE_DEFINED_CURVE_FONT('continuous');
#36=DRAUGHTING_PRE_DEFINED_CURVE_FONT('continuous');
#37=DRAUGHTING_PRE_DEFINED_CURVE_FONT('continuous');
#38=CURVE_STYLE(' ',#14,POSITIVE_LENGTH_MEASURE(0.352777777777778),#117);
#39=CURVE_STYLE(' ',#15,POSITIVE_LENGTH_MEASURE(0.352777777777778),#118);
#40=CURVE_STYLE(' ',#16,POSITIVE_LENGTH_MEASURE(0.352777777777778),#119);
#41=CURVE_STYLE(' ',#17,POSITIVE_LENGTH_MEASURE(0.352777777777778),#120);
#42=CURVE_STYLE(' ',#18,POSITIVE_LENGTH_MEASURE(0.352777777777778),#121);
#43=CURVE_STYLE(' ',#19,POSITIVE_LENGTH_MEASURE(0.352777777777778),#122);
#44=CURVE_STYLE(' ',#20,POSITIVE_LENGTH_MEASURE(0.352777777777778),#123);
#45=CURVE_STYLE(' ',#21,POSITIVE_LENGTH_MEASURE(0.352777777777778),#124);
#46=CURVE_STYLE(' ',#22,POSITIVE_LENGTH_MEASURE(0.352777777777778),#125);
#47=CURVE_STYLE(' ',#23,POSITIVE_LENGTH_MEASURE(0.352777777777778),#126);
#48=CURVE_STYLE(' ',#24,POSITIVE_LENGTH_MEASURE(0.352777777777778),#127);
#49=CURVE_STYLE(' ',#25,POSITIVE_LENGTH_MEASURE(0.352777777777778),#128);
#50=CURVE_STYLE(' ',#26,POSITIVE_LENGTH_MEASURE(0.352777777777778),#129);
#51=CURVE_STYLE(' ',#27,POSITIVE_LENGTH_MEASURE(0.352777777777778),#130);
#52=CURVE_STYLE(' ',#28,POSITIVE_LENGTH_MEASURE(0.352777777777778),#131);
#53=CURVE_STYLE(' ',#29,POSITIVE_LENGTH_MEASURE(0.352777777777778),#132);
#54=CURVE_STYLE(' ',#30,POSITIVE_LENGTH_MEASURE(0.352777777777778),#133);
#55=CURVE_STYLE(' ',#31,POSITIVE_LENGTH_MEASURE(0.352777777777778),#134);
#56=CURVE_STYLE(' ',#32,POSITIVE_LENGTH_MEASURE(0.352777777777778),#135);
#57=CURVE_STYLE(' ',#33,POSITIVE_LENGTH_MEASURE(0.352777777777778),#136);
#58=CURVE_STYLE(' ',#34,POSITIVE_LENGTH_MEASURE(0.352777777777778),#137);
#59=CURVE_STYLE(' ',#35,POSITIVE_LENGTH_MEASURE(0.352777777777778),#138);
#60=CURVE_STYLE(' ',#36,POSITIVE_LENGTH_MEASURE(0.352777777777778),#139);
#61=CURVE_STYLE(' ',#37,POSITIVE_LENGTH_MEASURE(0.352777777777778),#140);
#62=OVER_RIDING_STYLED_ITEM('Edge Colour',(#87),#199,#141);
#63=OVER_RIDING_STYLED_ITEM('Edge Colour',(#88),#200,#141);
#64=OVER_RIDING_STYLED_ITEM('Edge Colour',(#89),#201,#141);
#65=OVER_RIDING_STYLED_ITEM('Edge Colour',(#90),#199,#141);
#66=OVER_RIDING_STYLED_ITEM('Edge Colour',(#91),#202,#141);
#67=OVER_RIDING_STYLED_ITEM('Edge Colour',(#92),#201,#141);
#68=OVER_RIDING_STYLED_ITEM('Edge Colour',(#93),#203,#141);
#69=OVER_RIDING_STYLED_ITEM('Edge Colour',(#94),#202,#141);
#70=OVER_RIDING_STYLED_ITEM('Edge Colour',(#95),#203,#141);
#71=OVER_RIDING_STYLED_ITEM('Edge Colour',(#96),#204,#141);
#72=OVER_RIDING_STYLED_ITEM('Edge Colour',(#97),#205,#141);
#73=OVER_RIDING_STYLED_ITEM('Edge Colour',(#98),#204,#141);
#74=OVER_RIDING_STYLED_ITEM('Edge Colour',(#99),#205,#141);
#75=OVER_RIDING_STYLED_ITEM('Edge Colour',(#100),#206,#141);
#76=OVER_RIDING_STYLED_ITEM('Edge Colour',(#101),#206,#141);
#77=OVER_RIDING_STYLED_ITEM('Edge Colour',(#102),#207,#141);
#78=OVER_RIDING_STYLED_ITEM('Edge Colour',(#103),#207,#141);
#79=OVER_RIDING_STYLED_ITEM('Edge Colour',(#104),#208,#141);
#80=OVER_RIDING_STYLED_ITEM('Edge Colour',(#105),#208,#141);
#81=OVER_RIDING_STYLED_ITEM('Edge Colour',(#106),#209,#141);
#82=OVER_RIDING_STYLED_ITEM('Edge Colour',(#107),#209,#141);
#83=OVER_RIDING_STYLED_ITEM('Edge Colour',(#108),#210,#141);
#84=OVER_RIDING_STYLED_ITEM('Edge Colour',(#109),#210,#141);
#85=OVER_RIDING_STYLED_ITEM('Edge Colour',(#110),#200,#141);
#86=PRESENTATION_STYLE_ASSIGNMENT((#111));
#87=PRESENTATION_STYLE_ASSIGNMENT((#38));
#88=PRESENTATION_STYLE_ASSIGNMENT((#39));
#89=PRESENTATION_STYLE_ASSIGNMENT((#40));
#90=PRESENTATION_STYLE_ASSIGNMENT((#41));
#91=PRESENTATION_STYLE_ASSIGNMENT((#42));
#92=PRESENTATION_STYLE_ASSIGNMENT((#43));
#93=PRESENTATION_STYLE_ASSIGNMENT((#44));
#94=PRESENTATION_STYLE_ASSIGNMENT((#45));
#95=PRESENTATION_STYLE_ASSIGNMENT((#46));
#96=PRESENTATION_STYLE_ASSIGNMENT((#47));
#97=PRESENTATION_STYLE_ASSIGNMENT((#48));
#98=PRESENTATION_STYLE_ASSIGNMENT((#49));
#99=PRESENTATION_STYLE_ASSIGNMENT((#50));
#100=PRESENTATION_STYLE_ASSIGNMENT((#51));
#101=PRESENTATION_STYLE_ASSIGNMENT((#52));
#102=PRESENTATION_STYLE_ASSIGNMENT((#53));
#103=PRESENTATION_STYLE_ASSIGNMENT((#54));
#104=PRESENTATION_STYLE_ASSIGNMENT((#55));
#105=PRESENTATION_STYLE_ASSIGNMENT((#56));
#106=PRESENTATION_STYLE_ASSIGNMENT((#57));
#107=PRESENTATION_STYLE_ASSIGNMENT((#58));
#108=PRESENTATION_STYLE_ASSIGNMENT((#59));
#109=PRESENTATION_STYLE_ASSIGNMENT((#60));
#110=PRESENTATION_STYLE_ASSIGNMENT((#61));
#111=SURFACE_STYLE_USAGE(.BOTH.,#112);
#112=SURFACE_SIDE_STYLE('',(#113));
#113=SURFACE_STYLE_FILL_AREA(#114);
#114=FILL_AREA_STYLE('',(#115));
#115=FILL_AREA_STYLE_COLOUR('',#116);
#116=COLOUR_RGB('',0.32548999786377,0.305882006883621,0.352941006422043);
#117=COLOUR_RGB('',0.,0.,0.);
#118=COLOUR_RGB('',0.,0.,0.);
#119=COLOUR_RGB('',0.,0.,0.);
#120=COLOUR_RGB('',0.,0.,0.);
#121=COLOUR_RGB('',0.,0.,0.);
#122=COLOUR_RGB('',0.,0.,0.);
#123=COLOUR_RGB('',0.,0.,0.);
#124=COLOUR_RGB('',0.,0.,0.);
#125=COLOUR_RGB('',0.,0.,0.);
#126=COLOUR_RGB('',0.,0.,0.);
#127=COLOUR_RGB('',0.,0.,0.);
#128=COLOUR_RGB('',0.,0.,0.);
#129=COLOUR_RGB('',0.,0.,0.);
#130=COLOUR_RGB('',0.,0.,0.);
#131=COLOUR_RGB('',0.,0.,0.);
#132=COLOUR_RGB('',0.,0.,0.);
#133=COLOUR_RGB('',0.,0.,0.);
#134=COLOUR_RGB('',0.,0.,0.);
#135=COLOUR_RGB('',0.,0.,0.);
#136=COLOUR_RGB('',0.,0.,0.);
#137=COLOUR_RGB('',0.,0.,0.);
#138=COLOUR_RGB('',0.,0.,0.);
#139=COLOUR_RGB('',0.,0.,0.);
#140=COLOUR_RGB('',0.,0.,0.);
#141=STYLED_ITEM('Solid Colour',(#86),#355);
#142=MECHANICAL_DESIGN_GEOMETRIC_PRESENTATION_REPRESENTATION(
'Container for Styled_item',(#141,#80,#81,#82,#83,#84,#85,#62,#63,#64,#65,
#66,#67,#68,#69,#70,#71,#72,#73,#74,#75,#76,#77,#78,#79),#416);
#143=PRESENTATION_LAYER_ASSIGNMENT('APPLE','1',(#356,#355));
#144=CLOSED_SHELL('',(#343,#344,#345,#346,#347,#348,#349,#350,#351,#352,
#353,#354));
#145=PLANE('',#314);
#146=PLANE('',#318);
#147=PLANE('',#322);
#148=PLANE('',#326);
#149=PLANE('',#330);
#150=PLANE('',#334);
#151=ORIENTED_EDGE('',*,*,#199,.T.);
#152=ORIENTED_EDGE('',*,*,#200,.T.);
#153=ORIENTED_EDGE('',*,*,#201,.T.);
#154=ORIENTED_EDGE('',*,*,#199,.T.);
#155=ORIENTED_EDGE('',*,*,#202,.F.);
#156=ORIENTED_EDGE('',*,*,#201,.T.);
#157=ORIENTED_EDGE('',*,*,#203,.T.);
#158=ORIENTED_EDGE('',*,*,#202,.F.);
#159=ORIENTED_EDGE('',*,*,#203,.F.);
#160=ORIENTED_EDGE('',*,*,#204,.T.);
#161=ORIENTED_EDGE('',*,*,#205,.T.);
#162=ORIENTED_EDGE('',*,*,#204,.F.);
#163=ORIENTED_EDGE('',*,*,#205,.F.);
#164=ORIENTED_EDGE('',*,*,#206,.T.);
#165=ORIENTED_EDGE('',*,*,#206,.F.);
#166=ORIENTED_EDGE('',*,*,#207,.T.);
#167=ORIENTED_EDGE('',*,*,#207,.F.);
#168=ORIENTED_EDGE('',*,*,#208,.T.);
#169=ORIENTED_EDGE('',*,*,#208,.F.);
#170=ORIENTED_EDGE('',*,*,#209,.F.);
#171=ORIENTED_EDGE('',*,*,#209,.F.);
#172=ORIENTED_EDGE('',*,*,#210,.T.);
#173=ORIENTED_EDGE('',*,*,#210,.T.);
#174=ORIENTED_EDGE('',*,*,#200,.T.);
#175=CIRCLE('',#312,3.);
#176=CIRCLE('',#313,3.);
#177=CIRCLE('',#315,9.5);
#178=CIRCLE('',#317,9.5);
#179=CIRCLE('',#319,12.9);
#180=CIRCLE('',#321,12.9);
#181=CIRCLE('',#323,19.5);
#182=CIRCLE('',#325,19.5);
#183=CIRCLE('',#327,12.9);
#184=CIRCLE('',#329,12.9);
#185=CIRCLE('',#331,9.5);
#186=CIRCLE('',#333,9.5);
#187=VERTEX_POINT('',#360);
#188=VERTEX_POINT('',#362);
#189=VERTEX_POINT('',#365);
#190=VERTEX_POINT('',#368);
#191=VERTEX_POINT('',#371);
#192=VERTEX_POINT('',#374);
#193=VERTEX_POINT('',#377);
#194=VERTEX_POINT('',#380);
#195=VERTEX_POINT('',#383);
#196=VERTEX_POINT('',#386);
#197=VERTEX_POINT('',#389);
#198=VERTEX_POINT('',#392);
#199=EDGE_CURVE('',#187,#187,#175,.T.);
#200=EDGE_CURVE('',#188,#188,#176,.T.);
#201=EDGE_CURVE('',#189,#189,#177,.T.);
#202=EDGE_CURVE('',#190,#190,#178,.T.);
#203=EDGE_CURVE('',#191,#191,#179,.T.);
#204=EDGE_CURVE('',#192,#192,#180,.T.);
#205=EDGE_CURVE('',#193,#193,#181,.T.);
#206=EDGE_CURVE('',#194,#194,#182,.T.);
#207=EDGE_CURVE('',#195,#195,#183,.T.);
#208=EDGE_CURVE('',#196,#196,#184,.T.);
#209=EDGE_CURVE('',#197,#197,#185,.T.);
#210=EDGE_CURVE('',#198,#198,#186,.T.);
#211=EDGE_LOOP('',(#151));
#212=EDGE_LOOP('',(#152));
#213=EDGE_LOOP('',(#153));
#214=EDGE_LOOP('',(#154));
#215=EDGE_LOOP('',(#155));
#216=EDGE_LOOP('',(#156));
#217=EDGE_LOOP('',(#157));
#218=EDGE_LOOP('',(#158));
#219=EDGE_LOOP('',(#159));
#220=EDGE_LOOP('',(#160));
#221=EDGE_LOOP('',(#161));
#222=EDGE_LOOP('',(#162));
#223=EDGE_LOOP('',(#163));
#224=EDGE_LOOP('',(#164));
#225=EDGE_LOOP('',(#165));
#226=EDGE_LOOP('',(#166));
#227=EDGE_LOOP('',(#167));
#228=EDGE_LOOP('',(#168));
#229=EDGE_LOOP('',(#169));
#230=EDGE_LOOP('',(#170));
#231=EDGE_LOOP('',(#171));
#232=EDGE_LOOP('',(#172));
#233=EDGE_LOOP('',(#173));
#234=EDGE_LOOP('',(#174));
#235=FACE_BOUND('',#211,.F.);
#236=FACE_BOUND('',#212,.F.);
#237=FACE_BOUND('',#213,.T.);
#238=FACE_BOUND('',#214,.T.);
#239=FACE_BOUND('',#215,.F.);
#240=FACE_BOUND('',#216,.F.);
#241=FACE_BOUND('',#217,.T.);
#242=FACE_BOUND('',#218,.T.);
#243=FACE_BOUND('',#219,.T.);
#244=FACE_BOUND('',#220,.T.);
#245=FACE_BOUND('',#221,.T.);
#246=FACE_BOUND('',#222,.T.);
#247=FACE_BOUND('',#223,.T.);
#248=FACE_BOUND('',#224,.T.);
#249=FACE_BOUND('',#225,.T.);
#250=FACE_BOUND('',#226,.T.);
#251=FACE_BOUND('',#227,.T.);
#252=FACE_BOUND('',#228,.T.);
#253=FACE_BOUND('',#229,.T.);
#254=FACE_BOUND('',#230,.T.);
#255=FACE_BOUND('',#231,.F.);
#256=FACE_BOUND('',#232,.F.);
#257=FACE_BOUND('',#233,.T.);
#258=FACE_BOUND('',#234,.T.);
#259=DIRECTION('',(0.,-1.,0.));
#260=DIRECTION('',(1.,0.,0.));
#261=DIRECTION('',(6.12323399573677E-017,1.,0.));
#262=DIRECTION('',(0.,0.,3.));
#263=DIRECTION('',(0.,-1.,0.));
#264=DIRECTION('',(0.,0.,3.));
#265=DIRECTION('',(-6.12323399573677E-017,-1.,0.));
#266=DIRECTION('',(-1.,6.12323399573677E-017,0.));
#267=DIRECTION('',(-6.12323399573677E-017,-1.,0.));
#268=DIRECTION('',(0.,0.,-9.5));
#269=DIRECTION('',(0.,-1.,0.));
#270=DIRECTION('',(0.,0.,-1.));
#271=DIRECTION('',(-6.12323399573677E-017,-1.,0.));
#272=DIRECTION('',(0.,0.,-9.5));
#273=DIRECTION('',(-6.12323399573677E-017,-1.,0.));
#274=DIRECTION('',(-1.,6.12323399573677E-017,0.));
#275=DIRECTION('',(0.,-1.,0.));
#276=DIRECTION('',(12.9,0.,0.));
#277=DIRECTION('',(0.,1.,0.));
#278=DIRECTION('',(1.,0.,0.));
#279=DIRECTION('',(0.,-1.,0.));
#280=DIRECTION('',(12.9,0.,0.));
#281=DIRECTION('',(-6.12323399573677E-017,-1.,0.));
#282=DIRECTION('',(-1.,6.12323399573677E-017,0.));
#283=DIRECTION('',(0.,-1.,0.));
#284=DIRECTION('',(19.5,0.,0.));
#285=DIRECTION('',(0.,1.,0.));
#286=DIRECTION('',(1.,0.,0.));
#287=DIRECTION('',(0.,-1.,0.));
#288=DIRECTION('',(19.5,0.,0.));
#289=DIRECTION('',(6.12323399573677E-017,1.,0.));
#290=DIRECTION('',(1.,-6.12323399573677E-017,0.));
#291=DIRECTION('',(0.,-1.,0.));
#292=DIRECTION('',(12.9,0.,0.));
#293=DIRECTION('',(0.,1.,0.));
#294=DIRECTION('',(1.,0.,0.));
#295=DIRECTION('',(0.,-1.,0.));
#296=DIRECTION('',(12.9,0.,0.));
#297=DIRECTION('',(6.12323399573677E-017,1.,0.));
#298=DIRECTION('',(1.,-6.12323399573677E-017,0.));
#299=DIRECTION('',(6.12323399573677E-017,1.,0.));
#300=DIRECTION('',(0.,0.,-9.5));
#301=DIRECTION('',(0.,1.,0.));
#302=DIRECTION('',(0.,0.,1.));
#303=DIRECTION('',(0.,1.,0.));
#304=DIRECTION('',(0.,0.,9.5));
#305=DIRECTION('',(0.,1.,0.));
#306=DIRECTION('',(1.,0.,0.));
#307=DIRECTION('',(0.,0.,1.));
#308=DIRECTION('',(1.,0.,0.));
#309=DIRECTION('',(0.,0.,1.));
#310=DIRECTION('',(1.,0.,0.));
#311=AXIS2_PLACEMENT_3D('',#359,#259,#260);
#312=AXIS2_PLACEMENT_3D('',#361,#261,#262);
#313=AXIS2_PLACEMENT_3D('',#363,#263,#264);
#314=AXIS2_PLACEMENT_3D('',#364,#265,#266);
#315=AXIS2_PLACEMENT_3D('',#366,#267,#268);
#316=AXIS2_PLACEMENT_3D('',#367,#269,#270);
#317=AXIS2_PLACEMENT_3D('',#369,#271,#272);
#318=AXIS2_PLACEMENT_3D('',#370,#273,#274);
#319=AXIS2_PLACEMENT_3D('',#372,#275,#276);
#320=AXIS2_PLACEMENT_3D('',#373,#277,#278);
#321=AXIS2_PLACEMENT_3D('',#375,#279,#280);
#322=AXIS2_PLACEMENT_3D('',#376,#281,#282);
#323=AXIS2_PLACEMENT_3D('',#378,#283,#284);
#324=AXIS2_PLACEMENT_3D('',#379,#285,#286);
#325=AXIS2_PLACEMENT_3D('',#381,#287,#288);
#326=AXIS2_PLACEMENT_3D('',#382,#289,#290);
#327=AXIS2_PLACEMENT_3D('',#384,#291,#292);
#328=AXIS2_PLACEMENT_3D('',#385,#293,#294);
#329=AXIS2_PLACEMENT_3D('',#387,#295,#296);
#330=AXIS2_PLACEMENT_3D('',#388,#297,#298);
#331=AXIS2_PLACEMENT_3D('',#390,#299,#300);
#332=AXIS2_PLACEMENT_3D('',#391,#301,#302);
#333=AXIS2_PLACEMENT_3D('',#393,#303,#304);
#334=AXIS2_PLACEMENT_3D('',#394,#305,#306);
#335=AXIS2_PLACEMENT_3D('',#395,#307,#308);
#336=AXIS2_PLACEMENT_3D('',#396,#309,#310);
#337=CYLINDRICAL_SURFACE('',#311,3.);
#338=CYLINDRICAL_SURFACE('',#316,9.5);
#339=CYLINDRICAL_SURFACE('',#320,12.9);
#340=CYLINDRICAL_SURFACE('',#324,19.5);
#341=CYLINDRICAL_SURFACE('',#328,12.9);
#342=CYLINDRICAL_SURFACE('',#332,9.5);
#343=ADVANCED_FACE('',(#235,#236),#337,.F.);
#344=ADVANCED_FACE('',(#237,#238),#145,.T.);
#345=ADVANCED_FACE('',(#239,#240),#338,.F.);
#346=ADVANCED_FACE('',(#241,#242),#146,.T.);
#347=ADVANCED_FACE('',(#243,#244),#339,.T.);
#348=ADVANCED_FACE('',(#245,#246),#147,.T.);
#349=ADVANCED_FACE('',(#247,#248),#340,.T.);
#350=ADVANCED_FACE('',(#249,#250),#148,.T.);
#351=ADVANCED_FACE('',(#251,#252),#341,.T.);
#352=ADVANCED_FACE('',(#253,#254),#149,.T.);
#353=ADVANCED_FACE('',(#255,#256),#342,.F.);
#354=ADVANCED_FACE('',(#257,#258),#150,.T.);
#355=MANIFOLD_SOLID_BREP('Solid',#144);
#356=GEOMETRIC_SET('Vertexshell',(#357,#358));
#357=CARTESIAN_POINT('',(0.,17.5,0.));
#358=CARTESIAN_POINT('',(0.,0.,0.));
#359=CARTESIAN_POINT('',(0.,17.5,0.));
#360=CARTESIAN_POINT('',(0.,1.14999999999999,3.));
#361=CARTESIAN_POINT('',(0.,1.14999999999999,0.));
#362=CARTESIAN_POINT('',(0.,16.35,3.));
#363=CARTESIAN_POINT('',(0.,16.35,0.));
#364=CARTESIAN_POINT('',(0.,1.15000000000001,0.));
#365=CARTESIAN_POINT('',(0.,1.15000000000001,-9.49999999999995));
#366=CARTESIAN_POINT('',(0.,1.15000000000001,4.9737991503207E-014));
#367=CARTESIAN_POINT('',(0.,0.,4.9737991503207E-014));
#368=CARTESIAN_POINT('',(0.,0.,-9.49999999999995));
#369=CARTESIAN_POINT('',(0.,0.,4.9737991503207E-014));
#370=CARTESIAN_POINT('',(3.,0.,0.));
#371=CARTESIAN_POINT('',(12.9,0.,0.));
#372=CARTESIAN_POINT('',(0.,0.,0.));
#373=CARTESIAN_POINT('',(0.,0.,0.));
#374=CARTESIAN_POINT('',(12.9,4.,0.));
#375=CARTESIAN_POINT('',(0.,4.,0.));
#376=CARTESIAN_POINT('',(12.9,4.,0.));
#377=CARTESIAN_POINT('',(19.5,4.,0.));
#378=CARTESIAN_POINT('',(0.,4.,0.));
#379=CARTESIAN_POINT('',(0.,4.,0.));
#380=CARTESIAN_POINT('',(19.5,11.9,0.));
#381=CARTESIAN_POINT('',(0.,11.9,0.));
#382=CARTESIAN_POINT('',(19.5,11.9,0.));
#383=CARTESIAN_POINT('',(12.9,11.9,0.));
#384=CARTESIAN_POINT('',(0.,11.9,0.));
#385=CARTESIAN_POINT('',(0.,11.9,0.));
#386=CARTESIAN_POINT('',(12.9,17.5,0.));
#387=CARTESIAN_POINT('',(0.,17.5,0.));
#388=CARTESIAN_POINT('',(12.9,17.5,0.));
#389=CARTESIAN_POINT('',(0.,17.5,-9.50000000000001));
#390=CARTESIAN_POINT('',(0.,17.5,-7.105427357601E-015));
#391=CARTESIAN_POINT('',(0.,17.5,-7.105427357601E-015));
#392=CARTESIAN_POINT('',(0.,16.35,9.49999999999999));
#393=CARTESIAN_POINT('',(0.,16.35,-7.105427357601E-015));
#394=CARTESIAN_POINT('',(0.,16.35,0.));
#395=CARTESIAN_POINT('',(0.,0.,0.));
#396=CARTESIAN_POINT('',(337.467930926474,115.377460926948,-32.2078624116981));
#397=SHAPE_REPRESENTATION('RootProduct',(#336),#416);
#398=SHAPE_REPRESENTATION('HiCADMultiBody',(#356,#355,#335),#417);
#399=PRODUCT_DEFINITION_SHAPE('','',#403);
#400=PRODUCT_DEFINITION_SHAPE('','',#404);
#401=PRODUCT_DEFINITION_SHAPE('',$,#13);
#402=PRODUCT_DEFINITION_CONTEXT('part definition',#408,'');
#403=PRODUCT_DEFINITION('','',#405,#402);
#404=PRODUCT_DEFINITION('','',#406,#402);
#405=PRODUCT_DEFINITION_FORMATION('','',#410);
#406=PRODUCT_DEFINITION_FORMATION('','',#411);
#407=APPLICATION_PROTOCOL_DEFINITION('international standard',
'automotive_design',2003,#408);
#408=APPLICATION_CONTEXT(
'Core Data for Automotive Mechanical Design Process');
#409=PRODUCT_CONTEXT('part definition',#408,'');
#410=PRODUCT('Root','Root','',(#409));
#411=PRODUCT('144110Looprol diam. 39, sleuf 8BOIKON',
'144110Looprol diam. 39, sleuf 8BOIKON','',(#409));
#412=SHAPE_DEFINITION_REPRESENTATION(#399,#397);
#413=SHAPE_DEFINITION_REPRESENTATION(#400,#398);
#414=PRODUCT_RELATED_PRODUCT_CATEGORY('','',(#410,#411));
#415=UNCERTAINTY_MEASURE_WITH_UNIT(LENGTH_MEASURE(0.001),#418,
'DISTANCE_ACCURACY_VALUE',
'Maximum model space distance between geometric entities at asserted co
nnectivities');
#416=(
GEOMETRIC_REPRESENTATION_CONTEXT(3)
GLOBAL_UNCERTAINTY_ASSIGNED_CONTEXT((#415))
GLOBAL_UNIT_ASSIGNED_CONTEXT((#418,#420,#423))
REPRESENTATION_CONTEXT('Default Context','3D')
);
#417=(
GEOMETRIC_REPRESENTATION_CONTEXT(3)
GLOBAL_UNCERTAINTY_ASSIGNED_CONTEXT((#415))
GLOBAL_UNIT_ASSIGNED_CONTEXT((#418,#420,#423))
REPRESENTATION_CONTEXT('Default Context','3D')
);
#418=(
LENGTH_UNIT()
NAMED_UNIT(*)
SI_UNIT(.MILLI.,.METRE.)
);
#419=DIMENSIONAL_EXPONENTS(0.,0.,0.,0.,0.,0.,0.);
#420=(
CONVERSION_BASED_UNIT('degree',#422)
NAMED_UNIT(#419)
PLANE_ANGLE_UNIT()
);
#421=(
NAMED_UNIT(*)
PLANE_ANGLE_UNIT()
SI_UNIT($,.RADIAN.)
);
#422=PLANE_ANGLE_MEASURE_WITH_UNIT(PLANE_ANGLE_MEASURE(0.01745329252),#421);
#423=(
NAMED_UNIT(*)
SI_UNIT($,.STERADIAN.)
SOLID_ANGLE_UNIT()
);
ENDSEC;
END-ISO-10303-21;
