ISO-10303-21;
HEADER;
/* Generated by software containing ST-Developer
 * from STEP Tools, Inc. (www.steptools.com) 
 */
/* OPTION: using custom schema-name function */

FILE_DESCRIPTION(
/* description */ (''),
/* implementation_level */ '2;1');

FILE_NAME(
/* name */ '145400',
/* time_stamp */ '2014-10-06T10:36:16+02:00',
/* author */ (''),
/* organization */ (''),
/* preprocessor_version */ 'ST-DEVELOPER v14',
/* originating_system */ 'HiCAD 2013 1802.4 Build 509',
/* authorisation */ '');

FILE_SCHEMA (('AUTOMOTIVE_DESIGN { 1 0 10303 214 1 1 1 1 }'));
ENDSEC;

DATA;
#10=ITEM_DEFINED_TRANSFORMATION('','',#160,#161);
#11=(
REPRESENTATION_RELATIONSHIP('','',#193,#192)
REPRESENTATION_RELATIONSHIP_WITH_TRANSFORMATION(#10)
SHAPE_REPRESENTATION_RELATIONSHIP()
);
#12=CONTEXT_DEPENDENT_SHAPE_REPRESENTATION(#11,#196);
#13=NEXT_ASSEMBLY_USAGE_OCCURRENCE('145400Dempingsring diam. 30BOIKON',
'145400Dempingsring diam. 30BOIKON','',#198,#199,$);
#14=DRAUGHTING_PRE_DEFINED_CURVE_FONT('continuous');
#15=DRAUGHTING_PRE_DEFINED_CURVE_FONT('continuous');
#16=DRAUGHTING_PRE_DEFINED_CURVE_FONT('continuous');
#17=DRAUGHTING_PRE_DEFINED_CURVE_FONT('continuous');
#18=DRAUGHTING_PRE_DEFINED_CURVE_FONT('continuous');
#19=DRAUGHTING_PRE_DEFINED_CURVE_FONT('continuous');
#20=DRAUGHTING_PRE_DEFINED_CURVE_FONT('continuous');
#21=DRAUGHTING_PRE_DEFINED_CURVE_FONT('continuous');
#22=DRAUGHTING_PRE_DEFINED_CURVE_FONT('continuous');
#23=DRAUGHTING_PRE_DEFINED_CURVE_FONT('continuous');
#24=CURVE_STYLE(' ',#14,POSITIVE_LENGTH_MEASURE(0.352777777777778),#61);
#25=CURVE_STYLE(' ',#15,POSITIVE_LENGTH_MEASURE(0.352777777777778),#62);
#26=CURVE_STYLE(' ',#16,POSITIVE_LENGTH_MEASURE(0.352777777777778),#63);
#27=CURVE_STYLE(' ',#17,POSITIVE_LENGTH_MEASURE(0.352777777777778),#64);
#28=CURVE_STYLE(' ',#18,POSITIVE_LENGTH_MEASURE(0.352777777777778),#65);
#29=CURVE_STYLE(' ',#19,POSITIVE_LENGTH_MEASURE(0.352777777777778),#66);
#30=CURVE_STYLE(' ',#20,POSITIVE_LENGTH_MEASURE(0.352777777777778),#67);
#31=CURVE_STYLE(' ',#21,POSITIVE_LENGTH_MEASURE(0.352777777777778),#68);
#32=CURVE_STYLE(' ',#22,POSITIVE_LENGTH_MEASURE(0.352777777777778),#69);
#33=CURVE_STYLE(' ',#23,POSITIVE_LENGTH_MEASURE(0.352777777777778),#70);
#34=OVER_RIDING_STYLED_ITEM('Edge Colour',(#45),#98,#71);
#35=OVER_RIDING_STYLED_ITEM('Edge Colour',(#46),#99,#71);
#36=OVER_RIDING_STYLED_ITEM('Edge Colour',(#47),#98,#71);
#37=OVER_RIDING_STYLED_ITEM('Edge Colour',(#48),#100,#71);
#38=OVER_RIDING_STYLED_ITEM('Edge Colour',(#49),#99,#71);
#39=OVER_RIDING_STYLED_ITEM('Edge Colour',(#50),#101,#71);
#40=OVER_RIDING_STYLED_ITEM('Edge Colour',(#51),#100,#71);
#41=OVER_RIDING_STYLED_ITEM('Edge Colour',(#52),#102,#71);
#42=OVER_RIDING_STYLED_ITEM('Edge Colour',(#53),#101,#71);
#43=OVER_RIDING_STYLED_ITEM('Edge Colour',(#54),#102,#71);
#44=PRESENTATION_STYLE_ASSIGNMENT((#55));
#45=PRESENTATION_STYLE_ASSIGNMENT((#24));
#46=PRESENTATION_STYLE_ASSIGNMENT((#25));
#47=PRESENTATION_STYLE_ASSIGNMENT((#26));
#48=PRESENTATION_STYLE_ASSIGNMENT((#27));
#49=PRESENTATION_STYLE_ASSIGNMENT((#28));
#50=PRESENTATION_STYLE_ASSIGNMENT((#29));
#51=PRESENTATION_STYLE_ASSIGNMENT((#30));
#52=PRESENTATION_STYLE_ASSIGNMENT((#31));
#53=PRESENTATION_STYLE_ASSIGNMENT((#32));
#54=PRESENTATION_STYLE_ASSIGNMENT((#33));
#55=SURFACE_STYLE_USAGE(.BOTH.,#56);
#56=SURFACE_SIDE_STYLE('',(#57));
#57=SURFACE_STYLE_FILL_AREA(#58);
#58=FILL_AREA_STYLE('',(#59));
#59=FILL_AREA_STYLE_COLOUR('',#60);
#60=COLOUR_RGB('',0.427451014518738,0.427451014518738,0.427451014518738);
#61=COLOUR_RGB('',0.,0.,0.);
#62=COLOUR_RGB('',0.,0.,0.);
#63=COLOUR_RGB('',0.,0.,0.);
#64=COLOUR_RGB('',0.,0.,0.);
#65=COLOUR_RGB('',0.,0.,0.);
#66=COLOUR_RGB('',0.,0.,0.);
#67=COLOUR_RGB('',0.,0.,0.);
#68=COLOUR_RGB('',0.,0.,0.);
#69=COLOUR_RGB('',0.,0.,0.);
#70=COLOUR_RGB('',0.,0.,0.);
#71=STYLED_ITEM('Solid Colour',(#44),#171);
#72=MECHANICAL_DESIGN_GEOMETRIC_PRESENTATION_REPRESENTATION(
'Container for Styled_item',(#34,#35,#36,#37,#38,#39,#40,#41,#42,#43,#71),
#211);
#73=PRESENTATION_LAYER_ASSIGNMENT('1','1',(#172,#171));
#74=CLOSED_SHELL('',(#165,#166,#167,#168,#169,#170));
#75=TOROIDAL_SURFACE('',#157,9.,1.);
#76=CYLINDRICAL_SURFACE('',#151,4.);
#77=CYLINDRICAL_SURFACE('',#155,10.);
#78=ORIENTED_EDGE('',*,*,#98,.F.);
#79=ORIENTED_EDGE('',*,*,#99,.T.);
#80=ORIENTED_EDGE('',*,*,#98,.F.);
#81=ORIENTED_EDGE('',*,*,#100,.F.);
#82=ORIENTED_EDGE('',*,*,#99,.T.);
#83=ORIENTED_EDGE('',*,*,#101,.F.);
#84=ORIENTED_EDGE('',*,*,#100,.T.);
#85=ORIENTED_EDGE('',*,*,#102,.F.);
#86=ORIENTED_EDGE('',*,*,#101,.T.);
#87=ORIENTED_EDGE('',*,*,#102,.T.);
#88=CIRCLE('',#150,4.);
#89=CIRCLE('',#152,4.);
#90=CIRCLE('',#154,10.);
#91=CIRCLE('',#156,10.);
#92=CIRCLE('',#158,9.);
#93=VERTEX_POINT('',#175);
#94=VERTEX_POINT('',#178);
#95=VERTEX_POINT('',#181);
#96=VERTEX_POINT('',#184);
#97=VERTEX_POINT('',#187);
#98=EDGE_CURVE('',#93,#93,#88,.T.);
#99=EDGE_CURVE('',#94,#94,#89,.T.);
#100=EDGE_CURVE('',#95,#95,#90,.T.);
#101=EDGE_CURVE('',#96,#96,#91,.T.);
#102=EDGE_CURVE('',#97,#97,#92,.T.);
#103=EDGE_LOOP('',(#78));
#104=EDGE_LOOP('',(#79));
#105=EDGE_LOOP('',(#80));
#106=EDGE_LOOP('',(#81));
#107=EDGE_LOOP('',(#82));
#108=EDGE_LOOP('',(#83));
#109=EDGE_LOOP('',(#84));
#110=EDGE_LOOP('',(#85));
#111=EDGE_LOOP('',(#86));
#112=EDGE_LOOP('',(#87));
#113=FACE_BOUND('',#103,.T.);
#114=FACE_BOUND('',#104,.F.);
#115=FACE_BOUND('',#105,.F.);
#116=FACE_BOUND('',#106,.T.);
#117=FACE_BOUND('',#107,.T.);
#118=FACE_BOUND('',#108,.T.);
#119=FACE_BOUND('',#109,.T.);
#120=FACE_BOUND('',#110,.T.);
#121=FACE_BOUND('',#111,.T.);
#122=FACE_BOUND('',#112,.T.);
#123=DIRECTION('',(0.,1.,0.));
#124=DIRECTION('',(1.,0.,0.));
#125=DIRECTION('',(0.,-1.,0.));
#126=DIRECTION('',(4.,0.,0.));
#127=DIRECTION('',(0.,-1.,0.));
#128=DIRECTION('',(1.,0.,0.));
#129=DIRECTION('',(0.,-1.,0.));
#130=DIRECTION('',(4.,0.,0.));
#131=DIRECTION('',(0.,1.,0.));
#132=DIRECTION('',(1.,0.,0.));
#133=DIRECTION('',(0.,-1.,0.));
#134=DIRECTION('',(10.,0.,0.));
#135=DIRECTION('',(0.,1.,0.));
#136=DIRECTION('',(1.,0.,0.));
#137=DIRECTION('',(0.,-1.,0.));
#138=DIRECTION('',(10.,0.,0.));
#139=DIRECTION('',(0.,-1.,0.));
#140=DIRECTION('',(1.,0.,0.));
#141=DIRECTION('',(0.,-1.,0.));
#142=DIRECTION('',(9.,0.,0.));
#143=DIRECTION('',(0.,-1.,0.));
#144=DIRECTION('',(-1.,0.,0.));
#145=DIRECTION('',(0.,0.,1.));
#146=DIRECTION('',(1.,0.,0.));
#147=DIRECTION('',(0.,0.,1.));
#148=DIRECTION('',(1.,0.,0.));
#149=AXIS2_PLACEMENT_3D('',#174,#123,#124);
#150=AXIS2_PLACEMENT_3D('',#176,#125,#126);
#151=AXIS2_PLACEMENT_3D('',#177,#127,#128);
#152=AXIS2_PLACEMENT_3D('',#179,#129,#130);
#153=AXIS2_PLACEMENT_3D('',#180,#131,#132);
#154=AXIS2_PLACEMENT_3D('',#182,#133,#134);
#155=AXIS2_PLACEMENT_3D('',#183,#135,#136);
#156=AXIS2_PLACEMENT_3D('',#185,#137,#138);
#157=AXIS2_PLACEMENT_3D('',#186,#139,#140);
#158=AXIS2_PLACEMENT_3D('',#188,#141,#142);
#159=AXIS2_PLACEMENT_3D('',#189,#143,#144);
#160=AXIS2_PLACEMENT_3D('',#190,#145,#146);
#161=AXIS2_PLACEMENT_3D('',#191,#147,#148);
#162=PLANE('',#149);
#163=PLANE('',#153);
#164=PLANE('',#159);
#165=ADVANCED_FACE('',(#113),#162,.T.);
#166=ADVANCED_FACE('',(#114,#115),#76,.F.);
#167=ADVANCED_FACE('',(#116,#117),#163,.T.);
#168=ADVANCED_FACE('',(#118,#119),#77,.T.);
#169=ADVANCED_FACE('',(#120,#121),#75,.T.);
#170=ADVANCED_FACE('',(#122),#164,.T.);
#171=MANIFOLD_SOLID_BREP('Solid',#74);
#172=GEOMETRIC_SET('Vertexshell',(#173));
#173=CARTESIAN_POINT('',(0.,7.,0.));
#174=CARTESIAN_POINT('',(4.,3.,0.));
#175=CARTESIAN_POINT('',(4.,3.,0.));
#176=CARTESIAN_POINT('',(0.,3.,0.));
#177=CARTESIAN_POINT('',(0.,7.,0.));
#178=CARTESIAN_POINT('',(4.,7.,0.));
#179=CARTESIAN_POINT('',(0.,7.,0.));
#180=CARTESIAN_POINT('',(10.,7.,0.));
#181=CARTESIAN_POINT('',(10.,7.,0.));
#182=CARTESIAN_POINT('',(0.,7.,0.));
#183=CARTESIAN_POINT('',(0.,1.,0.));
#184=CARTESIAN_POINT('',(10.,1.,0.));
#185=CARTESIAN_POINT('',(0.,1.,0.));
#186=CARTESIAN_POINT('',(0.,1.,0.));
#187=CARTESIAN_POINT('',(9.,0.,0.));
#188=CARTESIAN_POINT('',(0.,0.,0.));
#189=CARTESIAN_POINT('',(0.,0.,0.));
#190=CARTESIAN_POINT('',(0.,0.,0.));
#191=CARTESIAN_POINT('',(97.2571438017009,55.0833017307181,48.4795739701131));
#192=SHAPE_REPRESENTATION('RootProduct',(#161),#211);
#193=SHAPE_REPRESENTATION('HiCADMultiBody',(#172,#171,#160),#212);
#194=PRODUCT_DEFINITION_SHAPE('','',#198);
#195=PRODUCT_DEFINITION_SHAPE('','',#199);
#196=PRODUCT_DEFINITION_SHAPE('',$,#13);
#197=PRODUCT_DEFINITION_CONTEXT('part definition',#203,'');
#198=PRODUCT_DEFINITION('','',#200,#197);
#199=PRODUCT_DEFINITION('','',#201,#197);
#200=PRODUCT_DEFINITION_FORMATION('','',#205);
#201=PRODUCT_DEFINITION_FORMATION('','',#206);
#202=APPLICATION_PROTOCOL_DEFINITION('international standard',
'automotive_design',2003,#203);
#203=APPLICATION_CONTEXT(
'Core Data for Automotive Mechanical Design Process');
#204=PRODUCT_CONTEXT('part definition',#203,'');
#205=PRODUCT('Root','Root','',(#204));
#206=PRODUCT('145400Dempingsring diam. 30BOIKON',
'145400Dempingsring diam. 30BOIKON','',(#204));
#207=SHAPE_DEFINITION_REPRESENTATION(#194,#192);
#208=SHAPE_DEFINITION_REPRESENTATION(#195,#193);
#209=PRODUCT_RELATED_PRODUCT_CATEGORY('','',(#205,#206));
#210=UNCERTAINTY_MEASURE_WITH_UNIT(LENGTH_MEASURE(0.001),#213,
'DISTANCE_ACCURACY_VALUE',
'Maximum model space distance between geometric entities at asserted co
nnectivities');
#211=(
GEOMETRIC_REPRESENTATION_CONTEXT(3)
GLOBAL_UNCERTAINTY_ASSIGNED_CONTEXT((#210))
GLOBAL_UNIT_ASSIGNED_CONTEXT((#213,#215,#218))
REPRESENTATION_CONTEXT('Default Context','3D')
);
#212=(
GEOMETRIC_REPRESENTATION_CONTEXT(3)
GLOBAL_UNCERTAINTY_ASSIGNED_CONTEXT((#210))
GLOBAL_UNIT_ASSIGNED_CONTEXT((#213,#215,#218))
REPRESENTATION_CONTEXT('Default Context','3D')
);
#213=(
LENGTH_UNIT()
NAMED_UNIT(*)
SI_UNIT(.MILLI.,.METRE.)
);
#214=DIMENSIONAL_EXPONENTS(0.,0.,0.,0.,0.,0.,0.);
#215=(
CONVERSION_BASED_UNIT('degree',#217)
NAMED_UNIT(#214)
PLANE_ANGLE_UNIT()
);
#216=(
NAMED_UNIT(*)
PLANE_ANGLE_UNIT()
SI_UNIT($,.RADIAN.)
);
#217=PLANE_ANGLE_MEASURE_WITH_UNIT(PLANE_ANGLE_MEASURE(0.01745329252),#216);
#218=(
NAMED_UNIT(*)
SI_UNIT($,.STERADIAN.)
SOLID_ANGLE_UNIT()
);
ENDSEC;
END-ISO-10303-21;
