ISO-10303-21;
HEADER;
/* Generated by software containing ST-Developer
 * from STEP Tools, Inc. (www.steptools.com) 
 */
/* OPTION: using custom schema-name function */

FILE_DESCRIPTION(
/* description */ (''),
/* implementation_level */ '2;1');

FILE_NAME(
/* name */ '145425',
/* time_stamp */ '2014-10-06T10:37:22+02:00',
/* author */ (''),
/* organization */ (''),
/* preprocessor_version */ 'ST-DEVELOPER v14',
/* originating_system */ 'HiCAD 2013 1802.4 Build 509',
/* authorisation */ '');

FILE_SCHEMA (('AUTOMOTIVE_DESIGN { 1 0 10303 214 1 1 1 1 }'));
ENDSEC;

DATA;
#10=ITEM_DEFINED_TRANSFORMATION('','',#298,#299);
#11=(
REPRESENTATION_RELATIONSHIP('','',#445,#444)
REPRESENTATION_RELATIONSHIP_WITH_TRANSFORMATION(#10)
SHAPE_REPRESENTATION_RELATIONSHIP()
);
#12=CONTEXT_DEPENDENT_SHAPE_REPRESENTATION(#11,#448);
#13=NEXT_ASSEMBLY_USAGE_OCCURRENCE('145425Dempingsring diam. 80BOIKON',
'145425Dempingsring diam. 80BOIKON','',#450,#451,$);
#14=DRAUGHTING_PRE_DEFINED_CURVE_FONT('continuous');
#15=DRAUGHTING_PRE_DEFINED_CURVE_FONT('continuous');
#16=DRAUGHTING_PRE_DEFINED_CURVE_FONT('continuous');
#17=DRAUGHTING_PRE_DEFINED_CURVE_FONT('continuous');
#18=DRAUGHTING_PRE_DEFINED_CURVE_FONT('continuous');
#19=DRAUGHTING_PRE_DEFINED_CURVE_FONT('continuous');
#20=DRAUGHTING_PRE_DEFINED_CURVE_FONT('continuous');
#21=DRAUGHTING_PRE_DEFINED_CURVE_FONT('continuous');
#22=DRAUGHTING_PRE_DEFINED_CURVE_FONT('continuous');
#23=DRAUGHTING_PRE_DEFINED_CURVE_FONT('continuous');
#24=DRAUGHTING_PRE_DEFINED_CURVE_FONT('continuous');
#25=DRAUGHTING_PRE_DEFINED_CURVE_FONT('continuous');
#26=DRAUGHTING_PRE_DEFINED_CURVE_FONT('continuous');
#27=DRAUGHTING_PRE_DEFINED_CURVE_FONT('continuous');
#28=DRAUGHTING_PRE_DEFINED_CURVE_FONT('continuous');
#29=DRAUGHTING_PRE_DEFINED_CURVE_FONT('continuous');
#30=DRAUGHTING_PRE_DEFINED_CURVE_FONT('continuous');
#31=DRAUGHTING_PRE_DEFINED_CURVE_FONT('continuous');
#32=DRAUGHTING_PRE_DEFINED_CURVE_FONT('continuous');
#33=DRAUGHTING_PRE_DEFINED_CURVE_FONT('continuous');
#34=DRAUGHTING_PRE_DEFINED_CURVE_FONT('continuous');
#35=DRAUGHTING_PRE_DEFINED_CURVE_FONT('continuous');
#36=DRAUGHTING_PRE_DEFINED_CURVE_FONT('continuous');
#37=DRAUGHTING_PRE_DEFINED_CURVE_FONT('continuous');
#38=CURVE_STYLE(' ',#14,POSITIVE_LENGTH_MEASURE(0.352777777777778),#117);
#39=CURVE_STYLE(' ',#15,POSITIVE_LENGTH_MEASURE(0.352777777777778),#118);
#40=CURVE_STYLE(' ',#16,POSITIVE_LENGTH_MEASURE(0.352777777777778),#119);
#41=CURVE_STYLE(' ',#17,POSITIVE_LENGTH_MEASURE(0.352777777777778),#120);
#42=CURVE_STYLE(' ',#18,POSITIVE_LENGTH_MEASURE(0.352777777777778),#121);
#43=CURVE_STYLE(' ',#19,POSITIVE_LENGTH_MEASURE(0.352777777777778),#122);
#44=CURVE_STYLE(' ',#20,POSITIVE_LENGTH_MEASURE(0.352777777777778),#123);
#45=CURVE_STYLE(' ',#21,POSITIVE_LENGTH_MEASURE(0.352777777777778),#124);
#46=CURVE_STYLE(' ',#22,POSITIVE_LENGTH_MEASURE(0.352777777777778),#125);
#47=CURVE_STYLE(' ',#23,POSITIVE_LENGTH_MEASURE(0.352777777777778),#126);
#48=CURVE_STYLE(' ',#24,POSITIVE_LENGTH_MEASURE(0.352777777777778),#127);
#49=CURVE_STYLE(' ',#25,POSITIVE_LENGTH_MEASURE(0.352777777777778),#128);
#50=CURVE_STYLE(' ',#26,POSITIVE_LENGTH_MEASURE(0.352777777777778),#129);
#51=CURVE_STYLE(' ',#27,POSITIVE_LENGTH_MEASURE(0.352777777777778),#130);
#52=CURVE_STYLE(' ',#28,POSITIVE_LENGTH_MEASURE(0.352777777777778),#131);
#53=CURVE_STYLE(' ',#29,POSITIVE_LENGTH_MEASURE(0.352777777777778),#132);
#54=CURVE_STYLE(' ',#30,POSITIVE_LENGTH_MEASURE(0.352777777777778),#133);
#55=CURVE_STYLE(' ',#31,POSITIVE_LENGTH_MEASURE(0.352777777777778),#134);
#56=CURVE_STYLE(' ',#32,POSITIVE_LENGTH_MEASURE(0.352777777777778),#135);
#57=CURVE_STYLE(' ',#33,POSITIVE_LENGTH_MEASURE(0.352777777777778),#136);
#58=CURVE_STYLE(' ',#34,POSITIVE_LENGTH_MEASURE(0.352777777777778),#137);
#59=CURVE_STYLE(' ',#35,POSITIVE_LENGTH_MEASURE(0.352777777777778),#138);
#60=CURVE_STYLE(' ',#36,POSITIVE_LENGTH_MEASURE(0.352777777777778),#139);
#61=CURVE_STYLE(' ',#37,POSITIVE_LENGTH_MEASURE(0.352777777777778),#140);
#62=OVER_RIDING_STYLED_ITEM('Edge Colour',(#87),#196,#141);
#63=OVER_RIDING_STYLED_ITEM('Edge Colour',(#88),#197,#141);
#64=OVER_RIDING_STYLED_ITEM('Edge Colour',(#89),#198,#141);
#65=OVER_RIDING_STYLED_ITEM('Edge Colour',(#90),#199,#141);
#66=OVER_RIDING_STYLED_ITEM('Edge Colour',(#91),#200,#141);
#67=OVER_RIDING_STYLED_ITEM('Edge Colour',(#92),#201,#141);
#68=OVER_RIDING_STYLED_ITEM('Edge Colour',(#93),#198,#141);
#69=OVER_RIDING_STYLED_ITEM('Edge Colour',(#94),#202,#141);
#70=OVER_RIDING_STYLED_ITEM('Edge Colour',(#95),#196,#141);
#71=OVER_RIDING_STYLED_ITEM('Edge Colour',(#96),#200,#141);
#72=OVER_RIDING_STYLED_ITEM('Edge Colour',(#97),#203,#141);
#73=OVER_RIDING_STYLED_ITEM('Edge Colour',(#98),#203,#141);
#74=OVER_RIDING_STYLED_ITEM('Edge Colour',(#99),#204,#141);
#75=OVER_RIDING_STYLED_ITEM('Edge Colour',(#100),#205,#141);
#76=OVER_RIDING_STYLED_ITEM('Edge Colour',(#101),#206,#141);
#77=OVER_RIDING_STYLED_ITEM('Edge Colour',(#102),#204,#141);
#78=OVER_RIDING_STYLED_ITEM('Edge Colour',(#103),#199,#141);
#79=OVER_RIDING_STYLED_ITEM('Edge Colour',(#104),#201,#141);
#80=OVER_RIDING_STYLED_ITEM('Edge Colour',(#105),#205,#141);
#81=OVER_RIDING_STYLED_ITEM('Edge Colour',(#106),#207,#141);
#82=OVER_RIDING_STYLED_ITEM('Edge Colour',(#107),#207,#141);
#83=OVER_RIDING_STYLED_ITEM('Edge Colour',(#108),#206,#141);
#84=OVER_RIDING_STYLED_ITEM('Edge Colour',(#109),#197,#141);
#85=OVER_RIDING_STYLED_ITEM('Edge Colour',(#110),#202,#141);
#86=PRESENTATION_STYLE_ASSIGNMENT((#111));
#87=PRESENTATION_STYLE_ASSIGNMENT((#38));
#88=PRESENTATION_STYLE_ASSIGNMENT((#39));
#89=PRESENTATION_STYLE_ASSIGNMENT((#40));
#90=PRESENTATION_STYLE_ASSIGNMENT((#41));
#91=PRESENTATION_STYLE_ASSIGNMENT((#42));
#92=PRESENTATION_STYLE_ASSIGNMENT((#43));
#93=PRESENTATION_STYLE_ASSIGNMENT((#44));
#94=PRESENTATION_STYLE_ASSIGNMENT((#45));
#95=PRESENTATION_STYLE_ASSIGNMENT((#46));
#96=PRESENTATION_STYLE_ASSIGNMENT((#47));
#97=PRESENTATION_STYLE_ASSIGNMENT((#48));
#98=PRESENTATION_STYLE_ASSIGNMENT((#49));
#99=PRESENTATION_STYLE_ASSIGNMENT((#50));
#100=PRESENTATION_STYLE_ASSIGNMENT((#51));
#101=PRESENTATION_STYLE_ASSIGNMENT((#52));
#102=PRESENTATION_STYLE_ASSIGNMENT((#53));
#103=PRESENTATION_STYLE_ASSIGNMENT((#54));
#104=PRESENTATION_STYLE_ASSIGNMENT((#55));
#105=PRESENTATION_STYLE_ASSIGNMENT((#56));
#106=PRESENTATION_STYLE_ASSIGNMENT((#57));
#107=PRESENTATION_STYLE_ASSIGNMENT((#58));
#108=PRESENTATION_STYLE_ASSIGNMENT((#59));
#109=PRESENTATION_STYLE_ASSIGNMENT((#60));
#110=PRESENTATION_STYLE_ASSIGNMENT((#61));
#111=SURFACE_STYLE_USAGE(.BOTH.,#112);
#112=SURFACE_SIDE_STYLE('',(#113));
#113=SURFACE_STYLE_FILL_AREA(#114);
#114=FILL_AREA_STYLE('',(#115));
#115=FILL_AREA_STYLE_COLOUR('',#116);
#116=COLOUR_RGB('',0.427451014518738,0.427451014518738,0.427451014518738);
#117=COLOUR_RGB('',0.,0.,0.);
#118=COLOUR_RGB('',0.,0.,0.);
#119=COLOUR_RGB('',0.,0.,0.);
#120=COLOUR_RGB('',0.,0.,0.);
#121=COLOUR_RGB('',0.,0.,0.);
#122=COLOUR_RGB('',0.,0.,0.);
#123=COLOUR_RGB('',0.,0.,0.);
#124=COLOUR_RGB('',0.,0.,0.);
#125=COLOUR_RGB('',0.,0.,0.);
#126=COLOUR_RGB('',0.,0.,0.);
#127=COLOUR_RGB('',0.,0.,0.);
#128=COLOUR_RGB('',0.,0.,0.);
#129=COLOUR_RGB('',0.,0.,0.);
#130=COLOUR_RGB('',0.,0.,0.);
#131=COLOUR_RGB('',0.,0.,0.);
#132=COLOUR_RGB('',0.,0.,0.);
#133=COLOUR_RGB('',0.,0.,0.);
#134=COLOUR_RGB('',0.,0.,0.);
#135=COLOUR_RGB('',0.,0.,0.);
#136=COLOUR_RGB('',0.,0.,0.);
#137=COLOUR_RGB('',0.,0.,0.);
#138=COLOUR_RGB('',0.,0.,0.);
#139=COLOUR_RGB('',0.,0.,0.);
#140=COLOUR_RGB('',0.,0.,0.);
#141=STYLED_ITEM('Solid Colour',(#86),#311);
#142=MECHANICAL_DESIGN_GEOMETRIC_PRESENTATION_REPRESENTATION(
'Container for Styled_item',(#141,#77,#78,#79,#80,#81,#82,#83,#84,#85,#62,
#63,#64,#65,#66,#67,#68,#69,#70,#71,#72,#73,#74,#75,#76),#463);
#143=PRESENTATION_LAYER_ASSIGNMENT('1','1',(#312,#311));
#144=CLOSED_SHELL('',(#303,#304,#305,#306,#307,#308,#309,#310));
#145=CYLINDRICAL_SURFACE('',#287,34.);
#146=CYLINDRICAL_SURFACE('',#293,5.2);
#147=CYLINDRICAL_SURFACE('',#294,7.5);
#148=CYLINDRICAL_SURFACE('',#297,5.2);
#149=(
BOUNDED_CURVE()
B_SPLINE_CURVE(3,(#326,#327,#328,#329,#330,#331,#332,#333,#334,#335,#336,
#337,#338,#339,#340,#341,#342,#343,#344,#345,#346,#347,#348,#349,#350,#351,
#352,#353,#354,#355,#356,#357,#358,#359,#360,#361,#362,#363,#364,#365,#366,
#367,#368,#369,#370,#371,#372,#373,#374,#375),.UNSPECIFIED.,.U.,.U.)
B_SPLINE_CURVE_WITH_KNOTS((4,1,1,1,1,1,1,1,1,1,1,1,1,1,1,1,1,1,1,1,1,1,1,
1,1,1,1,1,1,1,1,1,1,1,1,1,1,1,1,1,1,1,1,1,1,1,1,4),(0.301976795063985,0.309610245205009,
0.31783084152736,0.326149936824983,0.33455806917209,0.34304472938684,0.351598561771893,
0.360207628725449,0.368859729607819,0.377542756630125,0.386245064389463,
0.39495582647322,0.403665353174314,0.412365348761558,0.421049093966813,0.429711547807531,
0.438349370885056,0.446960878583254,0.455545936470299,0.46410581165139,0.47264299326956,
0.481160993464202,0.4896641375422,0.498157349445491,0.506645936195606,0.515135373090005,
0.523631090130299,0.532138259521757,0.540661584103937,0.549205087244139,
0.557771906023214,0.566364091407904,0.574982421411402,0.58362623576391,0.592293302977379,
0.600979732373589,0.609679944028403,0.618386708058389,0.627091260837983,
0.635783499618025,0.644452249252217,0.65308558656223,0.6616712008881,0.670196765110311,
0.67865029086195,0.687020444847999,0.695296809319341,0.699681807461146),
 .UNSPECIFIED.)
CURVE()
GEOMETRIC_REPRESENTATION_ITEM()
RATIONAL_B_SPLINE_CURVE((1.,1.,1.,1.,1.,1.,1.,1.,1.,1.,1.,1.,1.,1.,1.,1.,
1.,1.,1.,1.,1.,1.,1.,1.,1.,1.,1.,1.,1.,1.,1.,1.,1.,1.,1.,1.,1.,1.,1.,1.,
1.,1.,1.,1.,1.,1.,1.,1.,1.,1.))
REPRESENTATION_ITEM('')
);
#150=(
BOUNDED_CURVE()
B_SPLINE_CURVE(3,(#376,#377,#378,#379,#380,#381,#382,#383,#384,#385,#386,
#387,#388,#389,#390,#391,#392,#393,#394,#395,#396,#397,#398,#399,#400,#401,
#402,#403,#404,#405,#406,#407,#408,#409,#410,#411,#412,#413,#414,#415,#416,
#417,#418,#419,#420,#421,#422,#423,#424,#425),.UNSPECIFIED.,.U.,.U.)
B_SPLINE_CURVE_WITH_KNOTS((4,1,1,1,1,1,1,1,1,1,1,1,1,1,1,1,1,1,1,1,1,1,1,
1,1,1,1,1,1,1,1,1,1,1,1,1,1,1,1,1,1,1,1,1,1,1,1,4),(0.301976795063988,0.309610245205009,
0.317830841527359,0.326149936824982,0.33455806917209,0.34304472938684,0.351598561771892,
0.360207628725448,0.368859729607818,0.377542756630123,0.386245064389462,
0.394955826473219,0.403665353174313,0.412365348761557,0.421049093966812,
0.42971154780753,0.438349370885054,0.446960878583252,0.455545936470297,0.464105811651388,
0.472642993269559,0.4811609934642,0.489664137542198,0.49815734944549,0.506645936195604,
0.515135373090003,0.523631090130297,0.532138259521756,0.540661584103936,
0.549205087244138,0.557771906023213,0.566364091407902,0.5749824214114,0.583626235763908,
0.592293302977376,0.600979732373585,0.609679944028399,0.618386708058386,
0.62709126083798,0.635783499618021,0.644452249252214,0.653085586562227,0.661671200888097,
0.670196765110308,0.678650290861949,0.687020444847997,0.695296809319339,
0.699681807461146),.UNSPECIFIED.)
CURVE()
GEOMETRIC_REPRESENTATION_ITEM()
RATIONAL_B_SPLINE_CURVE((1.,1.,1.,1.,1.,1.,1.,1.,1.,1.,1.,1.,1.,1.,1.,1.,
1.,1.,1.,1.,1.,1.,1.,1.,1.,1.,1.,1.,1.,1.,1.,1.,1.,1.,1.,1.,1.,1.,1.,1.,
1.,1.,1.,1.,1.,1.,1.,1.,1.,1.))
REPRESENTATION_ITEM('')
);
#151=TOROIDAL_SURFACE('',#285,32.,2.);
#152=ORIENTED_EDGE('',*,*,#196,.T.);
#153=ORIENTED_EDGE('',*,*,#197,.F.);
#154=ORIENTED_EDGE('',*,*,#198,.T.);
#155=ORIENTED_EDGE('',*,*,#199,.F.);
#156=ORIENTED_EDGE('',*,*,#200,.T.);
#157=ORIENTED_EDGE('',*,*,#201,.F.);
#158=ORIENTED_EDGE('',*,*,#198,.F.);
#159=ORIENTED_EDGE('',*,*,#202,.F.);
#160=ORIENTED_EDGE('',*,*,#196,.F.);
#161=ORIENTED_EDGE('',*,*,#200,.F.);
#162=ORIENTED_EDGE('',*,*,#203,.T.);
#163=ORIENTED_EDGE('',*,*,#203,.F.);
#164=ORIENTED_EDGE('',*,*,#204,.F.);
#165=ORIENTED_EDGE('',*,*,#205,.T.);
#166=ORIENTED_EDGE('',*,*,#206,.F.);
#167=ORIENTED_EDGE('',*,*,#204,.F.);
#168=ORIENTED_EDGE('',*,*,#199,.F.);
#169=ORIENTED_EDGE('',*,*,#201,.F.);
#170=ORIENTED_EDGE('',*,*,#205,.T.);
#171=ORIENTED_EDGE('',*,*,#207,.F.);
#172=ORIENTED_EDGE('',*,*,#207,.F.);
#173=ORIENTED_EDGE('',*,*,#206,.F.);
#174=ORIENTED_EDGE('',*,*,#197,.F.);
#175=ORIENTED_EDGE('',*,*,#202,.F.);
#176=CIRCLE('',#281,32.);
#177=CIRCLE('',#282,5.2);
#178=CIRCLE('',#283,32.);
#179=CIRCLE('',#284,5.2);
#180=CIRCLE('',#286,34.);
#181=CIRCLE('',#288,34.);
#182=CIRCLE('',#290,5.2);
#183=CIRCLE('',#291,7.5);
#184=CIRCLE('',#292,5.2);
#185=CIRCLE('',#295,7.5);
#186=VERTEX_POINT('',#315);
#187=VERTEX_POINT('',#316);
#188=VERTEX_POINT('',#318);
#189=VERTEX_POINT('',#320);
#190=VERTEX_POINT('',#324);
#191=VERTEX_POINT('',#427);
#192=VERTEX_POINT('',#430);
#193=VERTEX_POINT('',#432);
#194=VERTEX_POINT('',#434);
#195=VERTEX_POINT('',#438);
#196=EDGE_CURVE('',#186,#187,#176,.T.);
#197=EDGE_CURVE('',#188,#187,#177,.T.);
#198=EDGE_CURVE('',#188,#189,#178,.T.);
#199=EDGE_CURVE('',#186,#189,#179,.T.);
#200=EDGE_CURVE('',#190,#190,#180,.T.);
#201=EDGE_CURVE('',#189,#186,#149,.T.);
#202=EDGE_CURVE('',#187,#188,#150,.T.);
#203=EDGE_CURVE('',#191,#191,#181,.T.);
#204=EDGE_CURVE('',#192,#192,#182,.T.);
#205=EDGE_CURVE('',#193,#193,#183,.T.);
#206=EDGE_CURVE('',#194,#194,#184,.T.);
#207=EDGE_CURVE('',#195,#195,#185,.T.);
#208=EDGE_LOOP('',(#152,#153,#154,#155));
#209=EDGE_LOOP('',(#156));
#210=EDGE_LOOP('',(#157,#158,#159,#160));
#211=EDGE_LOOP('',(#161));
#212=EDGE_LOOP('',(#162));
#213=EDGE_LOOP('',(#163));
#214=EDGE_LOOP('',(#164));
#215=EDGE_LOOP('',(#165));
#216=EDGE_LOOP('',(#166));
#217=EDGE_LOOP('',(#167));
#218=EDGE_LOOP('',(#168,#169));
#219=EDGE_LOOP('',(#170));
#220=EDGE_LOOP('',(#171));
#221=EDGE_LOOP('',(#172));
#222=EDGE_LOOP('',(#173));
#223=EDGE_LOOP('',(#174,#175));
#224=FACE_BOUND('',#208,.T.);
#225=FACE_BOUND('',#209,.T.);
#226=FACE_BOUND('',#210,.T.);
#227=FACE_BOUND('',#211,.T.);
#228=FACE_BOUND('',#212,.T.);
#229=FACE_BOUND('',#213,.T.);
#230=FACE_BOUND('',#214,.T.);
#231=FACE_BOUND('',#215,.T.);
#232=FACE_BOUND('',#216,.T.);
#233=FACE_BOUND('',#217,.F.);
#234=FACE_BOUND('',#218,.F.);
#235=FACE_BOUND('',#219,.F.);
#236=FACE_BOUND('',#220,.F.);
#237=FACE_BOUND('',#221,.T.);
#238=FACE_BOUND('',#222,.F.);
#239=FACE_BOUND('',#223,.F.);
#240=DIRECTION('',(0.,-1.,0.));
#241=DIRECTION('',(-1.,0.,0.));
#242=DIRECTION('',(0.,-1.,0.));
#243=DIRECTION('',(32.,0.,0.));
#244=DIRECTION('',(0.,-1.,0.));
#245=DIRECTION('',(0.,0.,5.2));
#246=DIRECTION('',(0.,-1.,0.));
#247=DIRECTION('',(32.,0.,0.));
#248=DIRECTION('',(0.,-1.,0.));
#249=DIRECTION('',(0.,0.,5.2));
#250=DIRECTION('',(0.,-1.,0.));
#251=DIRECTION('',(1.,0.,0.));
#252=DIRECTION('',(0.,-1.,0.));
#253=DIRECTION('',(34.,0.,0.));
#254=DIRECTION('',(0.,1.,0.));
#255=DIRECTION('',(1.,0.,0.));
#256=DIRECTION('',(0.,-1.,0.));
#257=DIRECTION('',(34.,0.,0.));
#258=DIRECTION('',(0.,1.,0.));
#259=DIRECTION('',(1.,0.,0.));
#260=DIRECTION('',(0.,1.,0.));
#261=DIRECTION('',(0.,0.,-5.2));
#262=DIRECTION('',(0.,-1.,0.));
#263=DIRECTION('',(7.5,0.,0.));
#264=DIRECTION('',(0.,1.,0.));
#265=DIRECTION('',(0.,0.,-5.2));
#266=DIRECTION('',(0.,1.,0.));
#267=DIRECTION('',(0.,0.,-1.));
#268=DIRECTION('',(0.,-1.,0.));
#269=DIRECTION('',(1.,0.,0.));
#270=DIRECTION('',(0.,-1.,0.));
#271=DIRECTION('',(7.5,0.,0.));
#272=DIRECTION('',(0.,1.,0.));
#273=DIRECTION('',(1.,0.,0.));
#274=DIRECTION('',(0.,1.,0.));
#275=DIRECTION('',(0.,0.,-1.));
#276=DIRECTION('',(0.,0.,1.));
#277=DIRECTION('',(1.,0.,0.));
#278=DIRECTION('',(0.,0.,1.));
#279=DIRECTION('',(1.,0.,0.));
#280=AXIS2_PLACEMENT_3D('',#314,#240,#241);
#281=AXIS2_PLACEMENT_3D('',#317,#242,#243);
#282=AXIS2_PLACEMENT_3D('',#319,#244,#245);
#283=AXIS2_PLACEMENT_3D('',#321,#246,#247);
#284=AXIS2_PLACEMENT_3D('',#322,#248,#249);
#285=AXIS2_PLACEMENT_3D('',#323,#250,#251);
#286=AXIS2_PLACEMENT_3D('',#325,#252,#253);
#287=AXIS2_PLACEMENT_3D('',#426,#254,#255);
#288=AXIS2_PLACEMENT_3D('',#428,#256,#257);
#289=AXIS2_PLACEMENT_3D('',#429,#258,#259);
#290=AXIS2_PLACEMENT_3D('',#431,#260,#261);
#291=AXIS2_PLACEMENT_3D('',#433,#262,#263);
#292=AXIS2_PLACEMENT_3D('',#435,#264,#265);
#293=AXIS2_PLACEMENT_3D('',#436,#266,#267);
#294=AXIS2_PLACEMENT_3D('',#437,#268,#269);
#295=AXIS2_PLACEMENT_3D('',#439,#270,#271);
#296=AXIS2_PLACEMENT_3D('',#440,#272,#273);
#297=AXIS2_PLACEMENT_3D('',#441,#274,#275);
#298=AXIS2_PLACEMENT_3D('',#442,#276,#277);
#299=AXIS2_PLACEMENT_3D('',#443,#278,#279);
#300=PLANE('',#280);
#301=PLANE('',#289);
#302=PLANE('',#296);
#303=ADVANCED_FACE('',(#224),#300,.T.);
#304=ADVANCED_FACE('',(#225,#226),#151,.T.);
#305=ADVANCED_FACE('',(#227,#228),#145,.T.);
#306=ADVANCED_FACE('',(#229,#230,#231,#232),#301,.T.);
#307=ADVANCED_FACE('',(#233,#234),#146,.F.);
#308=ADVANCED_FACE('',(#235,#236),#147,.F.);
#309=ADVANCED_FACE('',(#237),#302,.T.);
#310=ADVANCED_FACE('',(#238,#239),#148,.F.);
#311=MANIFOLD_SOLID_BREP('Solid',#144);
#312=GEOMETRIC_SET('Vertexshell',(#313));
#313=CARTESIAN_POINT('',(0.,7.00000000000001,0.));
#314=CARTESIAN_POINT('',(0.,-7.105427357601E-015,0.));
#315=CARTESIAN_POINT('',(2.80817554371116,-7.105427357601E-015,-31.8765454545455));
#316=CARTESIAN_POINT('',(2.80817554371117,-7.105427357601E-015,31.8765454545455));
#317=CARTESIAN_POINT('',(0.,-7.105427357601E-015,0.));
#318=CARTESIAN_POINT('',(-2.80817554371117,-7.105427357601E-015,31.8765454545455));
#319=CARTESIAN_POINT('',(0.,-7.105427357601E-015,27.5));
#320=CARTESIAN_POINT('',(-2.80817554371116,-7.105427357601E-015,-31.8765454545455));
#321=CARTESIAN_POINT('',(0.,-7.105427357601E-015,0.));
#322=CARTESIAN_POINT('',(0.,-7.105427357601E-015,-27.5));
#323=CARTESIAN_POINT('',(0.,2.,0.));
#324=CARTESIAN_POINT('',(34.,2.,0.));
#325=CARTESIAN_POINT('',(0.,2.,0.));
#326=CARTESIAN_POINT('',(-2.80817554323664,-9.20095999390469E-010,-31.8765454545873));
#327=CARTESIAN_POINT('',(-2.77619253976809,-1.01616492997891E-008,-31.8970670902278));
#328=CARTESIAN_POINT('',(-2.70929936410178,0.000484320154804152,-31.9389605597457));
#329=CARTESIAN_POINT('',(-2.60589088095504,0.00259466798312502,-32.0004905675185));
#330=CARTESIAN_POINT('',(-2.49771675379566,0.00606947810967995,-32.0614259474176));
#331=CARTESIAN_POINT('',(-2.38697525870451,0.0107279143480881,-32.1203512863901));
#332=CARTESIAN_POINT('',(-2.27383066449133,0.0164215646629984,-32.1770802049312));
#333=CARTESIAN_POINT('',(-2.15846598420359,0.0229941462988208,-32.2314357257436));
#334=CARTESIAN_POINT('',(-2.04107974237142,0.0302835815373967,-32.283253358637));
#335=CARTESIAN_POINT('',(-1.92188176986171,0.0381244378240453,-32.3323839634425));
#336=CARTESIAN_POINT('',(-1.8010882284722,0.0463506183314024,-32.3786961613438));
#337=CARTESIAN_POINT('',(-1.67891617243922,0.0547981543642706,-32.4220780846959));
#338=CARTESIAN_POINT('',(-1.55557802402933,0.0633079338705613,-32.4624383078089));
#339=CARTESIAN_POINT('',(-1.43127635929498,0.0717282052644137,-32.4997058791529));
#340=CARTESIAN_POINT('',(-1.30619936337729,0.0799167224561614,-32.533829465343));
#341=CARTESIAN_POINT('',(-1.18051723101402,0.0877424401870925,-32.5647757026465));
#342=CARTESIAN_POINT('',(-1.05437967592438,0.0950867199576422,-32.5925269181442));
#343=CARTESIAN_POINT('',(-0.927914595363049,0.101844056771618,-32.6170784213021));
#344=CARTESIAN_POINT('',(-0.801227833744107,0.107922378066924,-32.6384355759448));
#345=CARTESIAN_POINT('',(-0.674403915085307,0.1132429942488,-32.656610847089));
#346=CARTESIAN_POINT('',(-0.547507572744749,0.117740294286108,-32.6716209850769));
#347=CARTESIAN_POINT('',(-0.420585893804287,0.121361281641931,-32.6834844700712));
#348=CARTESIAN_POINT('',(-0.293670907250785,0.124065038592242,-32.6922193009756));
#349=CARTESIAN_POINT('',(-0.166782470978902,0.125822194237507,-32.6978411794876));
#350=CARTESIAN_POINT('',(-0.0399313443575267,0.126614456220189,-32.7003621148672));
#351=CARTESIAN_POINT('',(0.0868776357958723,0.126434250423394,-32.6997894585679));
#352=CARTESIAN_POINT('',(0.213642331917001,0.125284497900843,-32.6961253690599));
#353=CARTESIAN_POINT('',(0.340360072755928,0.123178544346324,-32.6893667040861));
#354=CARTESIAN_POINT('',(0.46702443908157,0.120140244364258,-32.6795053379322));
#355=CARTESIAN_POINT('',(0.593622096377729,0.116204190157937,-32.6665289026293));
#356=CARTESIAN_POINT('',(0.720129712252856,0.111416061436792,-32.6504219519251));
#357=CARTESIAN_POINT('',(0.84651101421413,0.105833059937133,-32.6311675429942));
#358=CARTESIAN_POINT('',(0.972714068379659,0.0995243778930472,-32.608749221083));
#359=CARTESIAN_POINT('',(1.09866888887071,0.0925716356152506,-32.5831533749202));
#360=CARTESIAN_POINT('',(1.22428551669718,0.0850692103274824,-32.5543719050068));
#361=CARTESIAN_POINT('',(1.34945272977548,0.0771243687216909,-32.5224051135507));
#362=CARTESIAN_POINT('',(1.47403755463111,0.0688571122073824,-32.4872646866848));
#363=CARTESIAN_POINT('',(1.59788573723175,0.0603996497285451,-32.4489766020604));
#364=CARTESIAN_POINT('',(1.72082328873407,0.0518954309876278,-32.4075837656109));
#365=CARTESIAN_POINT('',(1.84265914943489,0.0434977040386215,-32.3631481690858));
#366=CARTESIAN_POINT('',(1.96318891543822,0.0353676039205837,-32.3157523727381));
#367=CARTESIAN_POINT('',(2.0821994600733,0.0276718284813455,-32.2655001594668));
#368=CARTESIAN_POINT('',(2.19947417522687,0.0205800061134127,-32.2125162757549));
#369=CARTESIAN_POINT('',(2.31479847826348,0.0142618988264474,-32.156945261846));
#370=CARTESIAN_POINT('',(2.42796519616265,0.00888460506082112,-32.098949464104));
#371=CARTESIAN_POINT('',(2.53877945839486,0.00460992558516438,-32.0387063998933));
#372=CARTESIAN_POINT('',(2.64706279978898,0.00159203332820113,-31.9764056959287));
#373=CARTESIAN_POINT('',(2.73653943591258,0.000222275012710327,-31.9220386239779));
#374=CARTESIAN_POINT('',(2.78980302867164,-2.16004920616797E-008,-31.8883340202272));
#375=CARTESIAN_POINT('',(2.80817552444782,-1.96088763004809E-008,-31.8765454562425));
#376=CARTESIAN_POINT('',(2.80817554323663,-9.20095999390469E-010,31.8765454545873));
#377=CARTESIAN_POINT('',(2.77619253976809,-1.01616492997891E-008,31.8970670902278));
#378=CARTESIAN_POINT('',(2.7092993641018,0.000484320154804152,31.9389605597457));
#379=CARTESIAN_POINT('',(2.60589088095507,0.00259466798311792,32.0004905675185));
#380=CARTESIAN_POINT('',(2.49771675379571,0.00606947810967995,32.0614259474176));
#381=CARTESIAN_POINT('',(2.38697525870454,0.010727914348081,32.1203512863901));
#382=CARTESIAN_POINT('',(2.27383066449137,0.0164215646629984,32.1770802049312));
#383=CARTESIAN_POINT('',(2.15846598420363,0.0229941462988208,32.2314357257436));
#384=CARTESIAN_POINT('',(2.04107974237147,0.0302835815373967,32.283253358637));
#385=CARTESIAN_POINT('',(1.92188176986177,0.0381244378240453,32.3323839634425));
#386=CARTESIAN_POINT('',(1.80108822847224,0.0463506183314024,32.3786961613437));
#387=CARTESIAN_POINT('',(1.67891617243927,0.0547981543642635,32.4220780846959));
#388=CARTESIAN_POINT('',(1.55557802402939,0.0633079338705613,32.4624383078089));
#389=CARTESIAN_POINT('',(1.43127635929504,0.0717282052643995,32.4997058791528));
#390=CARTESIAN_POINT('',(1.30619936337733,0.0799167224561685,32.533829465343));
#391=CARTESIAN_POINT('',(1.18051723101406,0.0877424401870783,32.5647757026465));
#392=CARTESIAN_POINT('',(1.05437967592444,0.0950867199576493,32.5925269181442));
#393=CARTESIAN_POINT('',(0.927914595363106,0.101844056771604,32.6170784213021));
#394=CARTESIAN_POINT('',(0.801227833744164,0.107922378066924,32.6384355759448));
#395=CARTESIAN_POINT('',(0.674403915085364,0.1132429942488,32.656610847089));
#396=CARTESIAN_POINT('',(0.547507572744806,0.117740294286108,32.6716209850769));
#397=CARTESIAN_POINT('',(0.420585893804358,0.121361281641931,32.6834844700712));
#398=CARTESIAN_POINT('',(0.293670907250842,0.124065038592235,32.6922193009756));
#399=CARTESIAN_POINT('',(0.166782470978973,0.1258221942375,32.6978411794876));
#400=CARTESIAN_POINT('',(0.0399313443575835,0.126614456220189,32.7003621148672));
#401=CARTESIAN_POINT('',(-0.0868776357958154,0.126434250423387,32.6997894585679));
#402=CARTESIAN_POINT('',(-0.21364233191693,0.125284497900843,32.6961253690598));
#403=CARTESIAN_POINT('',(-0.340360072755871,0.123178544346324,32.6893667040861));
#404=CARTESIAN_POINT('',(-0.467024439081527,0.120140244364265,32.6795053379322));
#405=CARTESIAN_POINT('',(-0.593622096377672,0.116204190157937,32.6665289026293));
#406=CARTESIAN_POINT('',(-0.720129712252813,0.111416061436792,32.6504219519251));
#407=CARTESIAN_POINT('',(-0.846511014214073,0.105833059937133,32.6311675429942));
#408=CARTESIAN_POINT('',(-0.972714068379602,0.0995243778930401,32.608749221083));
#409=CARTESIAN_POINT('',(-1.09866888887063,0.0925716356152648,32.5831533749202));
#410=CARTESIAN_POINT('',(-1.22428551669711,0.0850692103274824,32.5543719050068));
#411=CARTESIAN_POINT('',(-1.34945272977539,0.077124368721698,32.5224051135507));
#412=CARTESIAN_POINT('',(-1.47403755463102,0.0688571122073895,32.4872646866849));
#413=CARTESIAN_POINT('',(-1.59788573723166,0.0603996497285451,32.4489766020604));
#414=CARTESIAN_POINT('',(-1.720823288734,0.0518954309876349,32.4075837656109));
#415=CARTESIAN_POINT('',(-1.84265914943481,0.0434977040386215,32.3631481690858));
#416=CARTESIAN_POINT('',(-1.96318891543815,0.0353676039205979,32.3157523727381));
#417=CARTESIAN_POINT('',(-2.08219946007321,0.0276718284813526,32.2655001594668));
#418=CARTESIAN_POINT('',(-2.19947417522678,0.0205800061134127,32.2125162757549));
#419=CARTESIAN_POINT('',(-2.3147984782634,0.0142618988264545,32.156945261846));
#420=CARTESIAN_POINT('',(-2.42796519616259,0.00888460506082112,32.0989494641041));
#421=CARTESIAN_POINT('',(-2.53877945839479,0.00460992558516438,32.0387063998933));
#422=CARTESIAN_POINT('',(-2.64706279978894,0.00159203332820823,31.9764056959287));
#423=CARTESIAN_POINT('',(-2.73653943591253,0.000222275012710327,31.9220386239779));
#424=CARTESIAN_POINT('',(-2.7898030286716,-2.16004920616797E-008,31.8883340202273));
#425=CARTESIAN_POINT('',(-2.80817552444779,-1.96088763004809E-008,31.8765454562425));
#426=CARTESIAN_POINT('',(0.,2.,0.));
#427=CARTESIAN_POINT('',(34.,7.00000000000001,0.));
#428=CARTESIAN_POINT('',(0.,7.00000000000001,0.));
#429=CARTESIAN_POINT('',(34.,7.00000000000001,0.));
#430=CARTESIAN_POINT('',(0.,7.00000000000001,-32.7));
#431=CARTESIAN_POINT('',(0.,7.00000000000001,-27.5));
#432=CARTESIAN_POINT('',(7.5,7.00000000000001,0.));
#433=CARTESIAN_POINT('',(0.,7.00000000000001,0.));
#434=CARTESIAN_POINT('',(0.,7.00000000000001,22.3));
#435=CARTESIAN_POINT('',(0.,7.00000000000001,27.5));
#436=CARTESIAN_POINT('',(0.,-0.00500000000000256,-27.5));
#437=CARTESIAN_POINT('',(0.,7.00000000000001,0.));
#438=CARTESIAN_POINT('',(7.5,2.5,0.));
#439=CARTESIAN_POINT('',(0.,2.5,0.));
#440=CARTESIAN_POINT('',(7.5,2.5,0.));
#441=CARTESIAN_POINT('',(0.,-0.00500000000000256,27.5));
#442=CARTESIAN_POINT('',(0.,0.,0.));
#443=CARTESIAN_POINT('',(97.8418596904696,60.9242394411815,63.3485266866494));
#444=SHAPE_REPRESENTATION('RootProduct',(#299),#463);
#445=SHAPE_REPRESENTATION('HiCADMultiBody',(#312,#311,#298),#464);
#446=PRODUCT_DEFINITION_SHAPE('','',#450);
#447=PRODUCT_DEFINITION_SHAPE('','',#451);
#448=PRODUCT_DEFINITION_SHAPE('',$,#13);
#449=PRODUCT_DEFINITION_CONTEXT('part definition',#455,'');
#450=PRODUCT_DEFINITION('','',#452,#449);
#451=PRODUCT_DEFINITION('','',#453,#449);
#452=PRODUCT_DEFINITION_FORMATION('','',#457);
#453=PRODUCT_DEFINITION_FORMATION('','',#458);
#454=APPLICATION_PROTOCOL_DEFINITION('international standard',
'automotive_design',2003,#455);
#455=APPLICATION_CONTEXT(
'Core Data for Automotive Mechanical Design Process');
#456=PRODUCT_CONTEXT('part definition',#455,'');
#457=PRODUCT('Root','Root','',(#456));
#458=PRODUCT('145425Dempingsring diam. 80BOIKON',
'145425Dempingsring diam. 80BOIKON','',(#456));
#459=SHAPE_DEFINITION_REPRESENTATION(#446,#444);
#460=SHAPE_DEFINITION_REPRESENTATION(#447,#445);
#461=PRODUCT_RELATED_PRODUCT_CATEGORY('','',(#457,#458));
#462=UNCERTAINTY_MEASURE_WITH_UNIT(LENGTH_MEASURE(0.001),#465,
'DISTANCE_ACCURACY_VALUE',
'Maximum model space distance between geometric entities at asserted co
nnectivities');
#463=(
GEOMETRIC_REPRESENTATION_CONTEXT(3)
GLOBAL_UNCERTAINTY_ASSIGNED_CONTEXT((#462))
GLOBAL_UNIT_ASSIGNED_CONTEXT((#465,#467,#470))
REPRESENTATION_CONTEXT('Default Context','3D')
);
#464=(
GEOMETRIC_REPRESENTATION_CONTEXT(3)
GLOBAL_UNCERTAINTY_ASSIGNED_CONTEXT((#462))
GLOBAL_UNIT_ASSIGNED_CONTEXT((#465,#467,#470))
REPRESENTATION_CONTEXT('Default Context','3D')
);
#465=(
LENGTH_UNIT()
NAMED_UNIT(*)
SI_UNIT(.MILLI.,.METRE.)
);
#466=DIMENSIONAL_EXPONENTS(0.,0.,0.,0.,0.,0.,0.);
#467=(
CONVERSION_BASED_UNIT('degree',#469)
NAMED_UNIT(#466)
PLANE_ANGLE_UNIT()
);
#468=(
NAMED_UNIT(*)
PLANE_ANGLE_UNIT()
SI_UNIT($,.RADIAN.)
);
#469=PLANE_ANGLE_MEASURE_WITH_UNIT(PLANE_ANGLE_MEASURE(0.01745329252),#468);
#470=(
NAMED_UNIT(*)
SI_UNIT($,.STERADIAN.)
SOLID_ANGLE_UNIT()
);
ENDSEC;
END-ISO-10303-21;
